>
 >
Porch 2

Porch 2 Bass Tabs

Pearl Jam - Porch 2 chords, tabs, tablatures, lyrics

Guitar lessons | Add/correct | Request | Top 50 tabs Artists:  A B C D E F G H I J K L M N O P Q R S T U V W X Y Z 0-9

Porch 2 Bass Tabs – Pearl Jam

CD, Sheet music, Poster

Do you like Porch 2? Share with your friends now
Bass TabsBass Tabs v2Bass Tabs v3ChordsChords v2Drum TabsTabsTabs v2Tabs v3Ukulele
Pearl Jam with Porch
Standard Tuning
The intro/chorus is played through almost the whole song, so variation is easy to do.. 
luck, please rate!

Intro and chorus
g--------------------|
d--------------------|
a--10--12--13--15----|
e--------------------|

g------------------------------------------------------|
d------------------------------------------------------|
a10-10-101010--12-12-12121213-13-13131315-15-151515/|
e------------------------------------------------------|

post-intro (not correct)
g--------------------------------------|
d------353------35~--------------------|
a----4----53---5--------013131----013~-|
e3-3-------3-3------3-3-------3-3-----|

guitar-solo+with distortion
g----------------------------|
d----------------------------|
a----------------------------|
e---0-------0------0-------0-|

variation in the chorus
g--------------------|
d--------------------|
a--10--12--13--12----|
e--------------------|

in the end the final note you bend.. and close it with a low E with distortion..





Comments


Popular Pearl Jam tabs & chords
Alive 3 Bass Tabs
Last Kiss 2 Bass Tabs
Driftin Chords
Animal 2 Tabs
Cant Help Falling In Love Tabs
In The Moonlight Tabs
Lucys Shoe Tabs
Release Tabs
Rival Tabs
Santa Cruz Ukulele


Song lyrics



↑ Back to top | Tablatures and chords are parodies/interpretations of the original songs. You may use it for private study, scholarship, research or language learning purposes only
© 2014 AZChords.com Contact us | Privacy policy | DMCA | Add/correct tabs | Request tabs | Top 50 tabs