>
 >
Porch 3

Porch 3 Bass Tabs

Pearl Jam - Porch 3 chords, tabs, tablatures, lyrics

Guitar lessons | Add/correct | Request | Top 50 tabs Artists:  A B C D E F G H I J K L M N O P Q R S T U V W X Y Z 0-9

Porch 3 Bass Tabs – Pearl Jam

CD, Sheet music, Poster

Do you like Porch 3? Share with your friends now
Bass TabsBass Tabs v2Bass Tabs v3ChordsChords v2Drum TabsTabsTabs v2Tabs v3Ukulele
4X rest

------------------------------------|
---7~~/----5~~/----7~~/----5~~~-----|
------------------------------------|
------------------------------------|

1st Time

---------------------------|
--5------7-----8------7----|
---------------------------|
---------------------------|

2nd

------------------------------------------5555-|
5---55--555----7--77--777--8--88--888----------|
-----------------------------------------------|
-----------------------------------------------|



This riff changes everytime in the verse. As long as you hit the first 2 notes the rest 
can be up to you. Scale sounds like Amin Pentatonic. Iíll throw in some note choices and 
just do whatever you like:)
                                  v---improv last half (any of those notes)

-------------------------------5-7--|
---7-7---5--------------5-7---------|
---------------------567------------|
-----------------5-8----------------|

Chorus

--------------------------------------------------------|
---5--55--555--7777--777--8-88--888--7--77--------------|
--------------------------------------------------------|
--------------------------------------------------------|

--------------------------------------------------------|
--777--5--55--555--7777--777--8--88--888----------------|
--------------------------------------------------------|
--------------------------------------------------------|
Repeat this ending twice.

--5555------------|
-----------8--7---|
------------------|
------------------|



--------------------------------------5---|
---5--55--555--7777--777--8-88--888-------|
------------------------------------------|
------------------------------------------|

Breakdown
-------------------------------------------------------|
-------------------------------------------------------|
-------------------------------------------------------|
-0-------------------------------------------------/---|

-------------------------------------------------------|
-------------------------------------------------------|
-------------------------------------------------------|
-0-----------------------------------------------------|

-------------------------------------------------------|
-------------------------------------------------------|
-------------------------------------------------------|
-0----------------------------------------------3--5---|

Last time              Hold A until Chorus
---------------------------------------------------------|
---------------------------------------------------------|
-----------------------------0---------------------------|
--0------------------------------------------------------|


Repeat Chorus like 4 times





Comments


Popular Pearl Jam tabs & chords
Go Bass Tabs
Rearviewmirror 1 Bass Tabs
Leatherman Chords
Nothingman 3 Chords
Trouble Chords
Spin The Black Circle Tabs
The Golden State Tabs
Thumbing My Way Tabs
Given To Fly Ukulele
Jeremy 2 Ukulele


Song lyrics



↑ Back to top | Tablatures and chords are parodies/interpretations of the original songs. You may use it for private study, scholarship, research or language learning purposes only
© 2014 AZChords.com Contact us | Privacy policy | DMCA | Add/correct tabs | Request tabs | Top 50 tabs