» » »

Just Breathe Tabs (ver.2)

Artists:  A B C D E F G H I J K L M N O P Q R S T U V W X Y Z # 

Just Breathe Tabs (ver.2)

Pearl Jam
Rating:
0/5 (0 votes)

Hard to play? Try these video lessons and learn fast.
                ----------------------------------------------------------------------------
                             JUST BREATHE - Pearl Jam
----------------------------------------------------------------------------


Tuning: Standard

This the way I play it. Listen to the song for timing. 

Edit: Updated - fixed a typo I made.


Intro Riff x 2

e|-------------|-3-----3-----|-0-----0-----|-3---5-------|
B|-1-----1-----|-------------|-------------|---0---------|
G|-----0-----0-|-----0-----0-|-----0-----0-|-------------|
D|---2-----2---|---2-----2---|---2-----2---|-------------|
A|-3-----3-----|-3-----3-----|-3-----3-----|-3-----------|
E|-------------|-------------|-------------|-------------|

e|-------------|-------------|-------------|-------------|
B|-3-----3-----|-5-----5-----|-3-----3-----|-0---3-0-----|
G|-----0-----0-|-----0-----0-|-----0-----0-|---0---------|
D|---0-----0---|---0-----0---|---0-----0---|-------------|
A|-------------|-------------|-------------|-------------|
E|-3-----3-----|-3-----3-----|-3-----3-----|-3---3-0-----|

Verse

e|-------------|-3-----3-----|-0-----0-----|-3-----3-----|
B|-1-----1-----|-------------|-------------|-------------|
G|-----0-----0-|-----0-----0-|-----0-----0-|-----0-----0-|
D|---2-----2---|---2-----2---|---2-----2---|---2-----2---|
A|-3-----3-----|-3-----3-----|-3-----3-----|-3-----3-----|
E|-------------|-------------|-------------|-------------|

e|-------------|-------------|-------------|-------------|
B|-3-----3-----|-5-----5-----|-3-----3-----|-0---3-0-----|
G|-----0-----0-|-----0-----0-|-----0-----0-|---0---------|
D|---0-----0---|---0-----0---|---0-----0---|-------------|
A|-------------|-------------|-------------|-------------|
E|-3-----3-----|-3-----3-----|-3-----3-----|-3---3-0-----|

Chorus

e|-0-----0-----|-3-----3-----|-0-----0-----|-3-----3-----|
B|-----1-----1-|-----1-----1-|-----1-----1-|-----1-----1-|
G|---2-----2---|---2-----2---|---2-----2---|---2-----2---|
D|-2-----2-----|-2-----2-----|-2-----2-----|-2-----2-----|
A|-------------|-------------|-------------|-------------|
E|-------------|-------------|-------------|-------------|


e|-1-----1-----|-3-----3-----|-1-----1-----|-1-----------|
B|-----1-----1-|-----1-----1-|-----1-----1-|---1---------|
G|---2-----2---|---2-----2---|---2-----2---|-----2-------|
D|-3-----3-----|-3-----3-----|-3-----3-----|-3-----------|
A|-------------|-------------|-------------|-------------|
E|-------------|-------------|-------------|-------------|
            
Hard to play? Try these video lessons and learn fast. | Correct




comments powered by Disqus
↑ Back to top | Tablatures and chords are parodies/interpretations of the original songs. You may use it for private study, scholarship, research or language learning purposes only