» » »

Pearl Jam, Just Breathe Tabs (ver.3)

Artists:  A B C D E F G H I J K L M N O P Q R S T U V W X Y Z # 

Just Breathe Tabs (ver.3)

Pearl Jam Tabs
Rating:
0/5 (0 votes)
Hard to play? Try these video lessons and learn fast.
                best of the guitar pro file and whats already up. enjoy
first tab blah blah


Intro 2x
|------------------|--3--------3-------|--0-------0------|--3------5------|
|--1--------1------|-------------------|-----------------|----------------|
|------0---------0-|------0----------0-|------0--------0-|------0-------0-|
|----2---------2---|----2---------2----|----2--------2---|----2-------2---|
|--3------3--------|--3------3---------|--3------3-------|--3------3------|
|------------------|-------------------|-----------------|----------------|

|------------------|------------------|------------------|----------------|
|--3--------3------|--5---------5-----|--3--------3------|--0-------3-----|
|------0---------0-|------0---------0-|------0---------0-|------0-------0-|
|----0---------0---|----0---------0---|----0---------0---|----0-------0---|
|------------------|------------------|------------------|----------------|
|--3-------3-------|--3-------3-------|--3-------3-------|--3-------3-----|end intro

Verse with words (however many times the verse needs it)
|------------------|--3--------3-------|--0-------0------|--3------3------|
|--1--------1------|-------------------|-----------------|----------------|
|------0---------0-|------0----------0-|------0--------0-|------0-------0-|
|----2---------2---|----2---------2----|----2--------2---|----2-------2---|
|--3------3--------|--3------3---------|--3------3-------|--3------3------|
|------------------|-------------------|-----------------|----------------|

|------------------|------------------|------------------|----------------|
|--3--------3------|--5---------5-----|--3--------3------|--0-------3-----|
|------0---------0-|------0---------0-|------0---------0-|------0-------0-|
|----0---------0---|----0---------0---|----0---------0---|----0-------0---|
|------------------|------------------|------------------|----------------|
|--3-------3-------|--3-------3-------|--3-------3-------|--3-------3-----|end verse

Stay with me...
|------------------|--3--------3-------|--0-------0------|--3--------3----|
|--1--------1------|-------------------|-----------------|----------------|
|------2---------2-|------2----------2-|------2-------2--|------2-------2-|
|----2---------2---|----2---------2----|----2-------2----|----2-------2---|
|--0------0--------|--0------0---------|--0------0-------|--0------0------|
|------------------|-------------------|-----------------|----------------|
			
|-1--------1------|--3--------3------|--1--------1------|--1-------1---0----|
|------1--------1-|-------1--------1-|-------1--------1-|-------1-----------|
|----2-------2----|-----2-------2----|-----2-------2----|-----2----------2--|
|-3------3--------|--3------3--------|--3------3--------|--3---------3------|
|-----------------|------------------|------------------|-------------------|
|-----------------|------------------|------------------|-------------------|

Did I say...
|--3---------3-----|--3---------3-----|--1---------1-----|--1-------1-----|
|-------0--------0-|-------0--------0-|-------3--------3-|-------3------3-|
|-----0--------0---|-----0--------0---|-----2--------2---|-----2------2---|
|------------------|------------------|--0-------0-------|--0------0------|
|------------------|------------------|------------------|----------------|
|--3-------3-------|--3-------3-------|------------------|----------------|

Did I say...
|--3---------3-----|--3---------3-----|--1---------1-----|--1-------1-----|
|-------0--------0-|-------0--------0-|-------3--------3-|-------3------3-|
|-----0--------0---|-----0--------0---|-----2--------2---|-----2------2---|
|------------------|------------------|--0-------0-------|--0------0------|
|------------------|------------------|------------------|----------------|
|--3-------3-------|--3-------3-------|------------------|----------------|

Oh if I didn't...
|--1--------1------|--1--------1------|--0--------0------|--0-------0-----|
|-------1--------1-|-------1--------1-|-------1--------1-|-------1------1-|
|-----2-------2----|-----2-------2----|-----2-------2----|-----2------2---|
|--3------3--------|--3------3--------|--0------0--------|--0------0------|
|------------------|------------------|------------------|----------------|
|------------------|------------------|------------------|----------------|

Noone knows this more...
|--1--------1------|--1--------1------|--1---------1-----|--1---------1----|
|-------3--------3-|-------3--------3-|-------3--------3-|------3--------3-|
|-----2-------2----|-----2-------2----|-----0--------0---|----0--------0---|
|--0------0--------|--0------0--------|------------------|-----------------|
|------------------|------------------|--2-------2-------|--2------2-------|
|------------------|------------------|------------------|-----------------|

As I come clean...
|----------0-------|--1------0-------|
|--3---------------|-----------------|
|------0-------0---|------0------0---|
|------------------|-----------------|
|------------------|-----------------|
|--3-------3-------|--3------3-------|

Outro:
|------------------|--3--------3-------|--0-------0------|--3--------3----|
|--1--------1------|-------------------|-----------------|----------------|
|------2---------2-|------2----------2-|------2-------2--|------2-------2-|
|----2---------2---|----2---------2----|----2-------2----|----2-------2---|
|--0------0--------|--0------0---------|--0------0-------|--0------0------|
|------------------|-------------------|-----------------|----------------|
				
|-1--------1------|--3--------3------||--1--------1------|--3--------3------|
|------1--------1-|-------1--------1-||-------1--------1-|-------1--------1-|
|----2-------2----|-----2-------2----||-----2-------2----|-----2-------2----|
|-3------3--------|--3------3--------||--3------3--------|--3------3--------|
|-----------------|------------------||------------------|------------------|
|-----------------|------------------||------------------|------------------|

|------------------|--3--------3-------|--0-------0------|--3--------3----|
|--1--------1------|-------------------|-----------------|----------------|
|------2---------2-|------2----------2-|------2-------2--|------2-------2-|
|----2---------2---|----2---------2----|----2-------2----|----2-------2---|
|--0------0--------|--0------0---------|--0------0-------|--0------0------|
|------------------|-------------------|-----------------|----------------|
				            
|--1--------1------|--3--------3------||--1--------1------|--0------------|
|-------1--------1-|-------1--------1-||-------1--------1-|--1------------|
|-----2-------2----|-----2-------2----||-----2-------2----|--2------------|
|--3------3--------|--3------3--------||--3------3--------|--3------------|
|------------------|------------------||------------------|---------------|
|------------------|------------------||------------------|---------------|
            

comments powered by Disqus
↑ Back to top | Pearl Jam Tabs for Just Breathe. Lyrics for acoustic guitar and electric guitar. Tablatures and chords are parodies/interpretations of the original songs. You may use it for private study, scholarship, research or language learning purposes only