>
 >
Inside Job

Inside Job Guitar Tabs

Pearl Jam - Inside Job chords, tabs, tablatures, lyrics

Guitar lessons | Add/correct | Request | Top 50 tabs Artists:  A B C D E F G H I J K L M N O P Q R S T U V W X Y Z 0-9

Inside Job Guitar Tabs – Pearl Jam

CD, Sheet music, Poster

Do you like Inside Job? Share with your friends now
Bass TabsChordsTabsTabs v2Ukulele
INSIDE JOB
-Pearl Jam - 


Tis is a corrected version from KNDW's tab (btw, well done mate!).

Bruno Mucciolo


STANDARD TUNNING



INTRO

      C7M		              Em*
    
e----------0-----    |--------------------------------
B----------0-----    |--------------------------------
G----0--0--0--0--    |---0--0--0---0--0--0--0--0------
D----2--2--2--2-- 2x |---2--2--2---2--2--4--2--0------
A----3--3--3-----    |---2--2--2---2--2--2--2--2------
E----------------    |---0--0--0---0--0--0--0--0------

This is played several times throughout the song.


Keep this chord in mind:
  B* 
e-----
B-1---
G-0---
D-0---
A-2---
E-----

INTRO

[0:00 - 1.17] C7M Em

[1:18 - 1:37] D D C - D D Em (x2)

[1:38 - 1:57] C7M Em (x2)


C7M				Em
Underneath this smile lies everything
C7M				  Em
All my hopes and anger, pride and shame
C			  Em
Make myself a pact not to shut doors on the past Just 
C	       Em
for today I am free


     C	 B*   Am7 D
I'll not lose my  faith
	C      B*  Am7	D
It's an inside job to-	day
  C	    B*  Am7	C	Em C Em
I know this one thing 	well…
 

  C					      Em
I used to try and kill love, it was the highest sin
C			     Em
Breathing insecurity out and in
C				     Em
Searching hope, I'm shown the way to run straight
			     C	       Em
Pursuing the greater way for all human light.

      C		(C7M)	      Em
How I choose to feel is how I am.
      C		(C7M)	      Em
How I choose to feel is how I am.


     C	 B*   Am7 D
I'll not lose my  faith
	C      B*  Am7	D
It's an inside job to-	day


C		B*
Holding on, the light of night
Am7	       A#              Am7         A#
On my knees to rise and fix my broken soul Again


	E D C D (x6, E@7th D@5th C@3rd) 

Solo (x2)
         
|-----------------------------|----------------------|
|--15b17-r15--13----12--------|----------------------|
|-----------------------12----|----------------------|
|-----------------------------|--12----L-------------|
|-----------------------------|----------------------|
|-----------------------------|----------------------|

|-----------------------------|--15------------------|
|--15b17-r15--13----12--------|----------15----------|
|-----------------------12----|----------------------|
|-----------------------------|----------------------|
|-----------------------------|----------------------|
|-----------------------------|----------------------|
     
       C     B* Am7 D
Let me run into the rain
	C     B*    Am7 D 
To be a human light a - gain

       C     B* Am7 D
Let me run into the rain
	   C     B*    Am7  D
To shine a human light to - day

C    B*    Am7  F      Am7 C    F     Am7 C    D
Life comes from with - in  your heart and de - sire
C    B*    Am7  F      Am7 C    F     Am7 C    D
Life comes from with - in  my   heart and de - sire





Comments


Popular Pearl Jam tabs & chords
Hail Hail 1 Chords
Aye Divitata 1 Tabs
Dirty Frank Tabs
Elderly Woman 2 Tabs
Garden 2 Tabs
Love Boat Captain 1 Tabs
Mind Your Manners Tabs
I Cant Help Falling In Love With You Ukulele
Jeremy Ukulele
Last Soldier Ukulele


Song lyrics



↑ Back to top | Tablatures and chords are parodies/interpretations of the original songs. You may use it for private study, scholarship, research or language learning purposes only
© 2014 AZChords.com Contact us | Privacy policy | DMCA | Add/correct tabs | Request tabs | Top 50 tabs