>
 >
Inside Job

Inside Job Bass Tabs

Pearl Jam - Inside Job chords, tabs, tablatures, lyrics

Guitar lessons | Add/correct | Request | Top 50 tabs Artists:  A B C D E F G H I J K L M N O P Q R S T U V W X Y Z 0-9

Inside Job Bass Tabs – Pearl Jam

CD, Sheet music, Poster

Do you like Inside Job? Share with your friends now
Bass TabsChordsTabsTabs v2Ukulele
Band: Pearl Jam
Created by: Rey Chatran
 
Start on 1:18

     D-C      D-E
G|-------------------|
D|-------------------|
A|--5-5-3----5-5-7---|
E|-------------------|    x2


[1:56]
Part 1  ---> x3     Underneath this smile lies everything..

G|------------------------12--11--9s0-----------|
D|----10--------10------14------12--------------|
A|--10--10----10--10----------------------------|
E|-8---------8---------0------------------------|

G|------------------------12--12h14-11---9s0----|
D|----10--------10------14------------12--------|
A|--10--10----10--10----------------------------|
E|-8---------8---------0------------------------|
 
[2:33]
Part 2    I'll not lose my  faith...
 
G|--------------------------|
D|--------------------------|
A|-3-2-0-5---3-2-0-5---3-2--|
E|--------------------------|
  
[3:04]
Part 1 x3       I used to try and kill love...
 
[3:39]
Part 3  ---> x2    How I choise to feel...
 
G|------------------------------|
D|------------------------------|
A|-7-3-3-3-3-3-5-7-7-7-7-7-5----|
E|------------------------------|
 
[3:57]
Part 2     I'll not lose my  faith...




[4:07]
Part 4      Holding on, the light of night...

                                           Again...
G|------------------------------------------------------|
D|------------------------------------------------------|
A|-3-3-3-2-2-2-0-0-0-1-1-1-0-0-0-0-0-0-0-0-1-1-1-1------|
E|------------------------------------------------------|




[4:25]
Part 5  (fast part)


G|---------------------------------------------------12-11-9-7---------------|
D|-12---------------12---------------12--------------------------------------|
A|---12---12-12-------12---12-12-------12---12-12----------------------------|
E|-----10---10-10-------10---10-10-------10---10-10--------------------------|

G|---------------------------------------------------12-11-11s16-14-11h12h11-|
D|-12---------------12---------------12--------------------------------------|
A|---12---12-12-------12---12-12-------12---12-12----------------------------|
E|-----10---10-10-------10---10-10-------10---10-10--------------------------|

G|---------------------------------------------------12-11-9-7---------------|
D|-12---------------12---------------12--------------------------------------|
A|---12---12-12-------12---12-12-------12---12-12----------------------------|
E|-----10---10-10-------10---10-10-------10---10-10--------------------------|




[4:50]
Guitar Solo

G|--------------------------------------|
D|--------------------------------------|
A|--8--7-8-7--3-----8--7-8-7--3-10-5----|
E|--------------3-----------------------|  x2





[5:07]
Part 2  x2    Let me run into the rain...




[5:26]
Part 6 (Final)    Life comes from with in  your heart and desire...


G|-------------------------------|
D|-------------------------------|
A|-3--2--0--8-7-8-3--8-7-8-3--5--|
E|-------------------------------|   x7





Comments


Popular Pearl Jam tabs & chords
Alive 3 Bass Tabs
Leatherman 3 Bass Tabs
Life Wasted Bass Tabs
All Or None Chords
Black 2 Chords
Bushleager Tabs
No Way Tabs
Yellow Ledbetter 1 Tabs
Comatose Ukulele
Soon Forget Ukulele


Song lyrics



↑ Back to top | Tablatures and chords are parodies/interpretations of the original songs. You may use it for private study, scholarship, research or language learning purposes only
© 2014 AZChords.com Contact us | Privacy policy | DMCA | Add/correct tabs | Request tabs | Top 50 tabs