>
 >
In My Tree 2

In My Tree 2 Guitar Tabs

Pearl Jam - In My Tree 2 chords, tabs, tablatures, lyrics

Guitar lessons | Add/correct | Request | Top 50 tabs Artists:  A B C D E F G H I J K L M N O P Q R S T U V W X Y Z 0-9

In My Tree 2 Guitar Tabs – Pearl Jam

CD, Sheet music, Poster

Do you like In My Tree 2? Share with your friends now
Bass TabsChordsTabsTabs v2Tabs v3Ukulele
v strum down 
^ strum up
p.m palm mute
you'll have to find the lyrics somewhere else. I are not to good words

-|----------------------|-----------------------------------------------------
-|----------------------|-----------------------------------------------------
-|----------------------|-----------------------------------------------------
-|----------------------|-----------------------------------------------------
-|--7-----9-------------|--7--7-7--7-7-7-9--9-9--9-9-9------------------------
-|--------------5-----7-|------------------------------5--5-5--5-5-5-7--------
  base intro               v  v ^  ^ v ^  continue                            

------------|-------------------------------------------------------|---------
------------|-------------------------------------------------------|---------
------------|-9--9-v-----------9\-9-v-----9-------------------------|---------
------------|----9--v----------9\-9--v--------------------------9-\-|---------
------------|----7-v--------------7-v------------2-2-2-2-2-2----7-\-|---------
-7-7--7-7-7-|----7--v-------------7--v-----------0-0-0-0-0-0----7-\-|---------
              ^  v  end                   ^    p.m v v v        v                    

-|----------------------------------------------------------------------------
-|------------------------0--0-0-0--0--0-0-0-0-0------------------------------
-|-9--9-9-9--9--9-9-9-9-9-8--8-8-8--8--8-8-8-8-8-9--9-9-9--9--9-9-9-9-9--9----
-|-9--9-9-9--9--9-9-9-9-9-6--6-6-6--6--6-6-6-6-6-7--7-7-7--7--7-7-7-7-9--9----
-|-7--7-7-7--7--7-7-7-7-7-7--7-7-7--7--7-7-7-7-7-7--7-------------0-0-7--7----
-|-0--0-0-0--0--0-0-0-0-0-0--0-0-0--0--0-0-0-0-0-5----------------------------
   v  ^ v ^  ^  ^ v ^ v ^ v  continue rythm  chorus                           

------------------|-------------3------0-----0-----------------3----0---------
------------------|-------------2------3-----0--0--------------2----3---------
-9-9--9-9-9-9-x-x-|-------------0------3-----1--1--------------0----3---------
-9-9--9-9-9-9-x-x-|--9-\--------0------3-----2-------9-9-9-9\--0----3---------
------------0-0-0-|--7-\--------3------0-----2-------7-7-7-7\--3----0---------
------------------|--7-\--------3------0-----0-------7-7-7-7\--3----0---------
                     v          v      v     v  v    ^ v ^ v   v    v         

--0---------------3-----0-----0--------------------3------0-----0-|--------|--
--0--0------------2-----3-----0--------------------2------3-----0-|--0-----|--
--1--1------------0-----3-----1--------------------0------3-----1-|--1-----|--
--2------9--9-9\--0-----3-----2--------9-9-\-------0------3-----2-|--2--6x-|--
--2------7--7-7\--3-----0-----2--------7-7-\-------3------0-----2-|--2-----|--
--0------7--7-7\--3-----0-----0--------7-7-\-------3------0-----0-|--0-----|--
                                                                              

-|----------------------------------|---------------------------------------|-
-|----------------------------------|---------------------------------------|-
-|-9--9-----------------------------|--------9-------------------7--7-7--x-x-|-
-|----9-------------9-----------x-x-|-9--9-9-9--10-10-x-x-9--9-9-7--7-7--x-x-|-
-|----7-------------7-7-7-7-7-7-x-x-|-9--9-9-7--10-10-x-x-9--9-9-5--5-5--x-x-|-
-|------------------7-7-7-7-7-7-x-x-|-7--7-7-7--9--9--x-x-7--7-7-5--5-5--x-x|-
                 p.mv v v v v v v ^   v  ^ v ^  ^  v  v ^ continue            

------------|------------|----------------------------------------------------
------------|------------|----------------------------------------------------
-5--5-5-5-5-|------------|----------------------------------------------------
-5--5-5-5-5-|------------|----------------------------------------------------
-3--3-3-3-3-|------------|----------------------------------------------------
------------|------------|----------------------------------------------------
 end          chorus





Comments


Popular Pearl Jam tabs & chords
Soldier Of Love Bass Tabs
Given To Fly Chords
Parachutes Chords
Daughter 2 Tabs
Elderly Woman Behind The Counter Tabs
Go 1 Tabs
Low Light Tabs
Out Of My Mind 1 Tabs
Sleight Of Hand Tabs
Speed Of Sound Ukulele


Song lyrics



↑ Back to top | Tablatures and chords are parodies/interpretations of the original songs. You may use it for private study, scholarship, research or language learning purposes only
© 2014 AZChords.com Contact us | Privacy policy | DMCA | Add/correct tabs | Request tabs | Top 50 tabs