>
 >
In My Tree

In My Tree Guitar Tabs

Pearl Jam - In My Tree chords, tabs, tablatures, lyrics

Guitar lessons | Add/correct | Request | Top 50 tabs Artists:  A B C D E F G H I J K L M N O P Q R S T U V W X Y Z 0-9

In My Tree Guitar Tabs – Pearl Jam

CD, Sheet music, Poster

Do you like In My Tree? Share with your friends now
Bass TabsChordsTabsTabs v2Tabs v3Ukulele

INTRO:
E------4------  let ring  (x 2)
B------5------
G------4------
D-------------
A-------------
E-------------


VERSE 1: ("Wave to all my friends...")
E------4------0------0------0-------
B------5------0------0------0-------
G------4------4------2------4-------
D------0------4------2------4-------
A------0------2------0------2-------
E------0------0------0------0-------


CHORUS 1: ("Up here so high I start to shake..")
E------3------0-------
B------0------0-------
G------0------1-------
D------0------2-------
A------2------2-------
E------3------0-------


VERSE 2: ("I remember when, yeah...")
* Same as VERSE 1

CHORUS 2(until the end of the song) : ("I'm so light the wind he shakes...")
* Same as CHORUS 1

THE MUSICAL PART AT THE END: after=>("Still got it, still got it")
E------0------0------0------0---------------
B------0------0------0------0--------------
G------1------4------2------4---------------
D------2------4------2------4---------------
A------2------2------0------2---------------
E------0------0------0------0---------------

IN MY TREE

Pearl Jam - No Code

This represents our interpretation of the original artist's work, to be used for personal or educational use only.

Transcibed by Bryce Christensen and Matt Forth.
If you add to this or fix any mistakes, please send us a copy.
(Please email if you are a drummer / bass guitarist near Brisbane interested in jammin'!!!!)

Intro Riff

E|----------------|----------------|
B|----------------|----------------|
G|----------------|----------------|
D|----------------|----------------|
A|----------------|----------------|
E|0--0-0--2--2-2--|5--5-5--7--7-7--|
  .   .   .   .    .   .   .   . 


Main Riff

E|----------------|
B|--------9-------|
G|----4---9---9---|
D|2---4---7---9---|
A|2---2---7---7---|
E|0-----------7---|
  .   .   .   . 



Verse 1:

Up here in my tree yeah
Newspapers mailing up to me yeah
No more crowbars to my head yeah
I'm trading stories with the leaves instead


Verse 2:

Wave to all my friends yeah
They don't seem to notice me no
I have asked it on the street
Sidewalk cigarettes and seams oh


Chorus:

Dont be so hard about your misktake
Dont be so hard the sky is grey
Im so high I'm just wondering through my head
Just like innocence


I commit the hand yeah
So I move everything oh
..
Its broken up just like me oh


Note:
I'm not that proud of this transcription - lots of holes.  If anyone out there can finish this for me I would be very grateful (at least I got the main riffs!!!!!)





Comments


Popular Pearl Jam tabs & chords
Love Boat Captain Bass Tabs
Thin Air Bass Tabs
Why Go 3 Bass Tabs
Brain Of Jfk Chords
Given To Fly 3 Tabs
Go 2 Tabs
Hail, Hail Tabs
Rearviewmirror 1 Tabs
Drifting Ukulele
Gone Ukulele


Song lyrics



↑ Back to top | Tablatures and chords are parodies/interpretations of the original songs. You may use it for private study, scholarship, research or language learning purposes only
© 2014 AZChords.com Contact us | Privacy policy | DMCA | Add/correct tabs | Request tabs | Top 50 tabs