» » »

Pearl Jam, In Hiding Tabs (ver.2)

Artists:  A B C D E F G H I J K L M N O P Q R S T U V W X Y Z # 

In Hiding Tabs (ver.2)

Pearl Jam Tabs
Rating:
0/5 (0 votes)
In Hiding lessons Tabs too difficult? Try these video lessons and learn fast
                This is based off of the Kansas City bootleg from Oct.12 2000

e----------------
B--2222-7-8888887
G--2222-7-7777777
D--2222----------
A----------------
E----------------

Verse
e--2223--8877-887777-2
B--3333--8888-888888-3
G--2222--7777-777777-2
D---------------------
A---------------------
E---------------------

Bit between verses
e-2-3-2-0---0-2---3-2-0---0-2---3-2-0---0-2-2
B-3-------3-------------3-------------3-----3
G-2-------------5-------------4-------------2
D-0-----------------------------------------0
A--------------------------------------------
E--------------------------------------------

Bit before first interlude:
Strum chourds of verse

Interlude:
D--77777--555-444-33333333333333
A--77777--555-444-33333333333333
E--55555--333-222-11111111111111

Reapeat These Pieces a couple times and that is it

Enjoy
            
Submit corrections

comments powered by Disqus
↑ Back to top | Pearl Jam Tabs for In Hiding. Lyrics for acoustic guitar and electric guitar. Tablatures and chords are parodies/interpretations of the original songs. You may use it for private study, scholarship, research or language learning purposes only