>
 >
In Hiding 1

In Hiding 1 Guitar Tabs

Pearl Jam - In Hiding 1 chords, tabs, tablatures, lyrics

Guitar lessons | Add/correct | Request | Top 50 tabs Artists:  A B C D E F G H I J K L M N O P Q R S T U V W X Y Z 0-9

In Hiding 1 Guitar Tabs – Pearl Jam

CD, Sheet music, Poster

Do you like In Hiding 1? Share with your friends now
Bass TabsChordsTabsTabs v2Tabs v3Ukulele
Words-Eddie Vedder
Music-Stone Gossard
standard tuning.

intro:(4 times)
--------------------------------     ---
-3-3-3-3-3-3-3-3/8-8-8-8-8-8-8-8     -7-
-2-2-2-2-2-2-2-2/7-7-7-7-7-7-7-7then -7-
-0-0-0-0-0-0-0-0-0-0-0-0-0-0-0-0     -0-
--------------------------------     ---
--------------------------------     ---

verse:                                             *
-2-2-2-2-2-3-3-2/8-8-8-8-7-7-7-7-8-8-8-8-7-7-7-7\2-2-2-2-2-2-2-2-
-3-3-3-3-3-3-3-3/8-8-8-8-8-8-8-8-8-8-8-8-8-8-8-8\3-3-3-3-3-3-3-3-
-2-2-2-2-2-2-2-2/7-7-7-7-7-7-7-7-7-7-7-7-7-7-7-7\2-2-2-2-2-2-2-2-
-0-0-0-0-0-0-0-0-0-0-0-0-0-0-0-0-0-0-0-0-0-0-0-0-0-0-0-0-0-0-0-0-

play this fill at the * every other thime the verse riff is played:
-2-3-/5---
--------3-
----------
----------
----------
----------

end of verse riff:
----/3-2-0---0-2------/3-2-0---0-2------/2-3---0-2------2-2-2-2-2-2-2-2-
-3---------3-------3---------3-------3--------------3---3-3-3-3-3-3-3-3-
-2-----------------2-----------------4--------------2---2-2-2-2-2-2-2-2-
-0-----------------0-----------------0--------------0---0-0-0-0-0-0-0-0-

pre-chorus (first time only: play a D chord for four bars, then...)
-------------------------2-2-2-2-----------------------------------
-------------------------3-3-3-3-----------------------------------
-6-6-6~~~---6-6\---------2-2-2-2-----------------------------------
-7-7-7~~~---7-7\5-5-5-5------------3-3-3-x-x3---3-3-3-3-x-x3---3---
-7-7-7~~~---7-7\5-5-5-5------------3-3-3-x-x3---3-3-3-3-x-x3---3---
-5-5-5~~~---5-5\3-3-3-3--2-2-2-2---1-1-1-x-x1-0-1-1-1-1-x-x1-0-1---
"I swallowed my words to keep from lying..."

-(first time only)-
-------------------
-------------------
-2222222222222222--
-2222222222222222--
-0000000000000000--

chorus (slow down the last two chords on the fourth time)
-0-0-0-0-0-0-0-0-3-3-3-3-2-2-2-2-
-2-2-2-2-2-2-3-3-3-3-3-3-3-3-3-3-
-2-2-2-2-2-2-2-2-2-2-2-2-2-2-2-2-
-2-2-2-2-2-2-2-2-0-0-0-0-0-0-0-0-
-0-0-0-0-0-0-0-0-----------------
---------------------------------
"   I'm   in     hiding..."

solo:(Gtr. 2 play verse riff)
-/10--10-8-7-8--7h8-8/10--10-8-7-8-\3--/10--10-8-7-8--7-8-/10-8-----7--8-7-

outro:                                                                  fade out
-2-2-2-2-2-3-3-2/8-8-8-8-7-7-7-7~-7-7-7-7-5-5-5-5----------------/3-2-0---0-2---
-3-3-3-3-3-3-3-3/8-8-8-8-8-8-8-8~-8-8-8-8-8-8-8-8--7-8-/10-3---3--------3------3
-2-2-2-2-2-2-2-2/7-7-7-7-7-7-7-7~-7-7-7-7-7-7-7-7--------------2---------------2
-0-0-0-0-0-0-0-0-0-0-0-0-0-0-0-0--0-0-0-0-0-0-0-0--------------0---------------0


+++++++++++++++++++++++++++++++++++++++++++++++++++++++++++++++++++
+                      Added and ammended to                      +
+++++++++++++++++++++++++++++++++++++++++++++++++++++++++++++++++++

In Hiding
Pearl Jam, from Yield, Track 11

Words:  Eddie Vedder
Music:  Stone Gossard
Standard Tuning



        Intro  

  |(i)| |--------(3x)-------|   
        
E--0-0--0-0-0-0-0-0-0-0-0-0-0-  The (i) is played very quickly, and sometimes      
B--5-0--5-5-5-5-5-8-8-8-8-7-7-  not at all.  Mix in to add variety.  Play 
G--7-7--6-6-6-6-7-7-7-7-7-7-7-  the first chord on the down stroke and the 
D--7----7-7-7-7-7-0-0-0-0-0-0-  second (0-0-7) on an upstroke.  For the first 
A--0----0-0-0-0-0-------------  chord, do not release the D string (7th fret) 
E-----------------------------  until the third chord.


E--0-0-0-0-0--8-5-              Play this once after the above is played
B--5-5-5-5-5--8-7-              three times.  This is the end of the intro.
G--6-6-6-6-7--7-7-      
D--7-7-7-7-7--0-0-
A--0-0-0-0--------
E-----------------


        Fig. 1a

E--5-5-5-5---5--8-7--8-7--8-7-5-        This is the music for the verses.               
B--7-7-7-7-8----8-8--8-8--8-8-7-        Play Fig. 1a, followed by 1b, then 
G--7-7-7-7----0-0-0--0-0--0-0-7-        back to 1a.
D--0-0-0-0----------------------                
A-------------------------------        Let ring throughout in both figures.
E-------------------------------

        Fig. 1b

E--5-5-5-5---5--8-7-5---7-5-----------5--
B--7-7-7-7-8----8-8---8-8-8-8-7-5-7-8----       
G--7-7-7-7----0-0-0-----0-0------------7-
D--0-0-0-0-------------------------------
A----------------------------------------
E----------------------------------------


        Fig. 2

E--5---------------------------------------5-5-5-       Play this twice.
B--7--8-7-5---5-7---8-7-5---5-7-0--5-8-5-8-7-7-7-
G--7--------7-----5-------7----------------7-7-7-
D--0---------------------------------------7-7-7-
A------------------------------------------5-5-5-
E------------------------------------------------





        Then play Fig 1a and 1b and back to 1a:

        Fig. 1a

E--5-5-5-5---5--8-7--8-7--8-7-5-        
B--7-7-7-7-8----8-8--8-8--8-8-7-        
G--7-7-7-7----0-0-0--0-0--0-0-7-        Let ring throughout in 1a and 1b.
D--0-0-0-0----------------------                
A-------------------------------        
E-------------------------------

        Fig. 1b

E--5-5-5-5---5--8-7-5---7-5-----------5--
B--7-7-7-7-8----8-8---8-8-8-8-7-5-7-8----       
G--7-7-7-7----0-0-0-----0-0------------7-
D--0-0-0-0-------------------------------
A----------------------------------------
E----------------------------------------



        Fig. 2

E--5---------------------------------------5-5-5-  Then play this once more. 
B--7--8-7-5---5-7---8-7-5---5-7-0--5-8-5-8-7-7-7-
G--7--------7-----5-------7----------------7-7-7-  The bridge follows.  
D--0---------------------------------------7-7-7-
A------------------------------------------5-5-5-
E------------------------------------------------


        Bridge:

E--5--8--8-8-5--5-7-5-8-8-8-    Listen to the music for the rhythm for the last 
B--7--7--7-7-6--6-6-6-6-6-6-    chord (8-6-7-0).  I did not tab the entire
G--7--5--6-5-7--7-7-7-7-7-7-    sequence of strummings for the last chord.
D--0--0--0-0-0--0-0-0-0-0-0-
A---------------------------
E---------------------------



        Fig. 3a

E----------------------------------------------
B----------------------------------------------         Play Fig. 3a four times.
G--2------2---------------r----------r-r-r-----         After the fourth time,
D--2--------0---0-0-3---3-a-3-3-3--3-a-a-a-3-3-         play Fig 3b. once.
A--0--0-------4-----3---3-k-3-3-3--3-k-k-k-3-3-
E-------3-----2-----1-1-1-e-1-0-1--1-e-e-e-1-1-

        Fig. 3b

E--0-----0-             Play the last chord as an upstroke.
B--0-----0-             
G--1-1---1-
D--2---2---
A--2-------
E--0-------








        Chorus:

        
E--0-0-0-0-0-0-0-0-0-0-0-               The chorus is like the intro.
B--5-5-5-5-5-8-8-8-8-7-7-               Play four times.
G--6-6-6-6-7-7-7-7-7-7-7-                       
D--7-7-7-7-7-0-0-0-0-0-0-               
A--0-0-0-0-0-------------               
E-----------------------------


        Solo:

E---------------------------------------
B--10--10-8-7-8--7h8-8/(10)--10-8-7-8---        Slide up on the / and do not pick 
G-------------------------------------7-        the note in parentheses.  
D---------------------------------------
A---------------------------------------
E---------------------------------------

E-----------------------------------------
B--10--10-8-7-8--7-8/(10)-8-----7-8-7-----      This follows the above.
G---------------------------7h9-----------
D-----------------------------------------
A-----------------------------------------
E-----------------------------------------

Then play Fig 1a, 1b and back to 1a again.
Then play 3a four times but do not play 3b.
Follow with the chorus eight times.

        Outro:

E--5-5-5-5---5---8-7-7-----7-5-----------5---
B--7-7-7-7-8-----8-8---8---8---8-7-5-7-8-----
G--7-7-7-7-----0-0-0-----0-0---------------7-
D--0-0-0-0-----------------------------------
A--------------------------------------------
E--------------------------------------------

        
E--5----------------    This is played after the above.  
B--7--8-7-5---5-7---    Roughly half of Fig 2.
G--7--------7-----5-
D--0----------------
A-------------------
E-------------------

So, the pattern is as follows:
(Read down first)

Intro                   Fig 1a
Fig 1a                  Fig 1b
Fig 1b                  Fig 1a
Fig 1a                  Fig 3a-4x
Fig 1a                  Outro
Fig 1b
Fig 1a
Fig 2
Bridge
Fig 3a-4x
Fig 3b
Chorus-4x
Solo





Comments


Popular Pearl Jam tabs & chords
Pilate Bass Tabs
Sad Bass Tabs
Elderly Woman Behind The Counter 1 Chords
Last Soldier Chords
Thin Air Chords
Brain Of J Tabs
Interstellar Overdrive Tabs
Low Light Tabs
Rocking In The Free World 1 Tabs
Rats Ukulele


Song lyrics



↑ Back to top | Tablatures and chords are parodies/interpretations of the original songs. You may use it for private study, scholarship, research or language learning purposes only
© 2014 AZChords.com Contact us | Privacy policy | DMCA | Add/correct tabs | Request tabs | Top 50 tabs