» » »

I Am Mine Tabs (ver.3)

Artists:  A B C D E F G H I J K L M N O P Q R S T U V W X Y Z # 

I Am Mine Tabs (ver.3)

Pearl Jam
Rating:
0/5 (0 votes)

Hard to play? Try these video lessons and learn fast.
                
e|-15-------------------------------------------------------|
B|---15-15--15-------------------------------------15-------|
G|------14b----14br-12----12-14-14--12-14-12-14/16----14-12-|
D|---------------------14-----------------------------------|
A|----------------------------------------------------------|
E|----------------------------------------------------------|

                                <-random strumming
e|------------------------15---15---------------------------|
B|--------------------------15-15---------------------------|
G|-12-14b-12----12h14-14-----------14-12-14b-12----12/14-14-|
D|-----------14---------------------------------14----------|
A|----------------------------------------------------------|
E|----------------------------------------------------------|

e|---------------------------|
B|---------------------------|
G|-12/14-12-14-16~-12/14-12~-|
D|---------------------------|
A|---------------------------|
E|---------------------------|
            
Hard to play? Try these video lessons and learn fast. | Correct




comments powered by Disqus
↑ Back to top | Tablatures and chords are parodies/interpretations of the original songs. You may use it for private study, scholarship, research or language learning purposes only