>
 >
I Am Mine 1

I Am Mine 1 Guitar Tabs

Pearl Jam - I Am Mine 1 chords, tabs, tablatures, lyrics

Guitar lessons | Add/correct | Request | Top 50 tabs Artists:  A B C D E F G H I J K L M N O P Q R S T U V W X Y Z 0-9

I Am Mine 1 Guitar Tabs – Pearl Jam

CD, Sheet music, Poster

Do you like I Am Mine 1? Share with your friends now
Bass TabsChordsChords v2Chords v3TabsTabs v2Tabs v3Tabs v4Tabs v5Ukulele
Pearl Jam - I Am Mine
New song played at the Bridge School Benefit.

This is my first attempt at creating a tableture for any song so please bare 
with me. Anytime you see a chord followed by (x) just play that chord on a 
for however many times it  says to.  When you see (x/x) that means to simply 
slide along to the next note.  The songs rhythm is like this:


    D  2 3  F   2   3   C   2   3   G  2  3
The selfish they're all standing in line
D     2     3     F  2   3  C   2   3      G   2   3
Faint and they're hoping to buy themselves time....


So just keep that rhythm throughout the song 1 2 3, 1 2 3, 1 2 3, 1 2 3,...
Hope you enjoy the song.  Please feel free to make adjustments as needed if
you feel something should be changed.


Intro:
e--------------------------------------------
B----3----3--3--3/6/8/6/5----5--5--5/6/5/1--- 
G----2----2--2--2/5/7/5/4----4--4--4/5/4/0---    Play this first riff 3 times
D--------------------------------------------
A--------------------------------------------
E--------------------------------------------

					     A
e--------------------------------------------0-0-0-0-0-0-0-0---
B----3----3--3--3/6/8/6/5----5--5--5--5--5---2-2-2-2-2-2-2-2---
G----2----2--2--2/5/7/5/4----4--4--4--4--4---2-2-2-2-2-2-2-2---
D--------------------------------------------2-2-2-2-2-2-2-2---
A--------------------------------------------0-0-0-0-0-0-0-0---
E--------------------------------------------0-0-0-0-0-0-0-0---


Verse 1:
    D       F           C           G
The selfish they're all standing in line
D                 F         C              G         
Faint and they're hoping to buy themselves time
D     F         C                G
Me, I figure as each breath goes by
F        G        D(x3)
I'm only known by mine
                F              C           G
The north is to south what the clock is to time
        D                F                C          G
There's east and there's west and there's everywhere life
  D          F          C              G 
I know I was born and I know that I'll die
    F    G        D(x2)   
The in-between is mine
F G  D(x4)
I am mine...



Chorus 1:
        G          Am          D(x2)
And the feeling it gets left behind
        G         Am        D(x2)
All the innocence broken in time
G               Am         D(x2)
We're different behind the eyes
             C (x4)  	      
There's no need to hide, we're safe tonight



(Intro, begin playing it while singing "tonight")



Verse 2:
    D        F          C          G
The ocean is full cause everyone's crying
    D            F           C               G
The full moon is looking for friends at high tide
    D            F               C          G
The sorrow grows bigger when the sorrow's denined
    F        G        D(x2)
Now I'm only known by mine
F G  D(x4)
I am mine...



Chorus 2:
        G          Am          D(x2)
And the feeling it gets left behind
        G         Am          D(x2)
All the innocence broken with light
G               Am         D(x2)
We're different behind the eyes
             C(x4)
There's no need to hide, we're safe tonight



Break (begin playing it while singing "tonight")
			   D	       C     D
e--------------------------x---x-x-x---x-x-x-x---x-x-x---
B----3----3--3--3/6/8/6----7---7-7-7---5-5-5-7---7-7-7---
G----2----2--2--2/5/7/5----7---7-7-7---5-5-5-7---7-7-7---
D--------------------------7---7-7-7---5-5-5-7---7-7-7---
A--------------------------5---5-5-5---3-3-3-5---5-5-5---
E--------------------------x---x-x-x---x-x-x-x---x-x-x---

	      D 	  C     D
e-------------x---x-x-x---x-x-x-x---x-x-x---
B----6/8/6----7---7-7-7---5-5-5-7---7-7-7--- 
G----5/7/5----7---7-7-7---5-5-5-7---7-7-7---  Play this riff 2 times
D-------------7---7-7-7---5-5-5-7---7-7-7---
A-------------5---5-5-5---3-3-3-5---5-5-5---
E-------------x---x-x-x---x-x-x-x---x-x-x---

	      D 	  	   D
e-------------x---x-x-x------------x---x-x-x---
B----6/8/6----7---7-7-7---6/8/6----7---7-7-7---
G----5/7/5----7---7-7-7---5/7/5----7---7-7-7---
D-------------7---7-7-7------------7---7-7-7---
A-------------5---5-5-5------------5---5-5-5---
E-------------x---x-x-x------------x---x-x-x---

	      D 	  C
e-------------x---x-x-x---x-x-x-x-x-x---
B----6/8/6----7---7-7-7---5-5-5-5-5-5---
G----5/7/5----7---7-7-7---5-5-5-5-5-5---
D-------------7---7-7-7---5-5-5-5-5-5---
A-------------5---5-5-5---3-3-3-3-3-3---
E-------------x---x-x-x---x-x-x-x-x-x---




Chours 3:
        G          Am          D(x2)
And the feeling it gets left behind
        G         Am          D(x2)
All the innocence broken with time
G               Am         D(x2)
We're different behind the eyes
	        C (x4)
There's no need to hide
        G          Am          D(x2)
And the feeling it gets left behind
        G         Am          D(x2)
All the innocence broken with light
      G         Am         D(x2)
We're different behind the eyes
        C(x4)	     A
We're safe tonight...



Great tune by Pearl Jam!  I actually feel this is one of their best songs 





Comments


Popular Pearl Jam tabs & chords
Hail Hail Bass Tabs
Lukin Bass Tabs
Future Days 1 Chords
Hard To Imagine Chords
Last Kiss 1 Chords
Nothingman 1 Chords
Tremor Christ Chords
Believe You Me Tabs
Got Some 1 Tabs
Lightning Bolt 1 Tabs


Song lyrics



↑ Back to top | Tablatures and chords are parodies/interpretations of the original songs. You may use it for private study, scholarship, research or language learning purposes only
© 2014 AZChords.com Contact us | Privacy policy | DMCA | Add/correct tabs | Request tabs | Top 50 tabs