» » »

Green Disease Tabs (ver.2)

Artists:  A B C D E F G H I J K L M N O P Q R S T U V W X Y Z # 

Green Disease Tabs (ver.2)

Pearl Jam
Rating:
0/5 (0 votes)

Hard to play? Try these video lessons and learn fast.
                
/ slide up
h hammer on

-------|------|--------|--|---------|--|---------|--|-------------|--|--------|
-------|------|--------|--|---------|--|---------|--|-------------|--|--------|
-------|---0--|-9---0--|--|---------|--|---------|--|-------------|--|--------|
-------|------|--------|--|---------|4x|---------|4x|-------------|2x|--------|
-------|-12---|---12---|--|---------|--|---------|--|-------------|--|--------|
-------|------|--------|--|-5-5-5-5-|--|-0-0-0-0-|--|-7--9--5--7--|--|--------|
        Intro               Bass         Bass         Hee hah

-------|---------------------4-4------4-4----|--|-----------------------------|
-------|----------------------4-4------5-5---|--|-----------------------------|
-------|-------------------------------------|--|-----------------------------|
-------|-------------------------------------|--|-----------------------------|
-------|-------------------------------------|--|-----------------------------|
-------|-9----7---4---6---4---------0--------|--|-----------------------------|
         Verse G1 strum each



-------|--------------------------------|-------------------------------------|
-------|--------9------9------9------7--|-------------------------------------|
-------|------8------9------8------8----|-------------------------------------|
-------|-9/11------9------9------8------|-------------------------------------|
-------|--------------------------------|-------------------------------------|
-------|--------------------------------|-------------------------------------|
         Verse G2

-------|-x-------|------------------------------------------------------------|
-------|-5-------|------------------------------------------------------------|
-------|-2-------|------------------------------------------------------------|
-------|---------|------------------------------------------------------------|
-------|---------|------------------------------------------------------------|
-------|---------|------------------------------------------------------------|
        w/ Intro Riff

-------|-x-------x-x------x------4---x------x-x-----x-------------------------|
-------|-2-------2-2------3----------2------2-2-----3-------------------------|
-------|-2---1---2-2--1---2---1------2---1--2-2--1--2-------------------------|
-------|-----2--------2-------2----------2-------2-----0-0-0-0-0-0-0-0-4-4-4--|
-------|----------------------------------------------------------------------|
-------|----------------------------------------------------------------------|
        Chorus                                      Let Ring.................

-----------|--|---------------------------------------------------------------|
-----------|--|---------------------------------------------------------------|
-----------|--|---------------------------------------------------------------|
-4-0-0-0-0-|2x|---------------------------------------------------------------|
-----------|--|---------------------------------------------------------------|
-----------|--|---------------------------------------------------------------|.........


-------|---------------------------|--|----------------|----------------------|
-------|---------------------------|--|----------------|----------------------|
-------|---------------------------|--|----------------|----------------------|
-------|-x----x--x-x-------x--x-x--|--|----------------|----------------------|
-------|-0h4--4--4-4--5-5--7--7-7--|--|----------------|----------------------|
-------|-0----0--0-0-------0--0-0--|--|----------------|----------------------|
         Interlude                       Outro = Intro
            
Hard to play? Try these video lessons and learn fast. | Correct




comments powered by Disqus
↑ Back to top | Tablatures and chords are parodies/interpretations of the original songs. You may use it for private study, scholarship, research or language learning purposes only