» » »

Green Disease Bass tabs (ver.1)

Artists:  A B C D E F G H I J K L M N O P Q R S T U V W X Y Z # 

Green Disease Bass tabs (ver.1)

Pearl Jam
Rating:
0/5 (0 votes)

Tabs too difficult? Try these video lessons and learn fast.
                Standard Tuning (E,A,D,G)

Intro:

G|---------|---------|---------|---------|
D|*--------|---------|---------|--------*|
A|*--------|---------|---------|--------*|
E|---------|---------|---------|---------|

G|---------|---------|---------|---------|
D|*--------|---------|---------|--------*|
A|*--------|---------|---------|--------*|
E|---------|---------|---------|---------|

G|---------|---------|---------|---------|
D|*7-7-7-7-|-7-7-7-7-|-7-7-7-7-|-7-7-7-7*|
A|*--------|---------|---------|--------*|
E|---------|---------|---------|---------|

G|---------|---------|---------|---------|
D|*--------|---------|---------|--------*|
A|*0-0-0-0-|-0-0-0-0-|-0-0-0-0-|-0-0-0-0*|
E|---------|---------|---------|---------|

Break:

G|---------|---------|---------|---------|
D|*--------|---------|---------|--------*|
A|*7-7-7-7-|-7-7-7-7-|-9-9-9-9-|-9-9-9-9*|
E|---------|---------|---------|---------|

G|---------|---------|---------|---------|
D|*5-5-5-5-|-5-5-5-5-|-7-7-7-7-|-7-7-7-7*|
A|*--------|---------|---------|--------*|
E|---------|---------|---------|---------|

G|---------|---------|---------|---------|
D|*--------|---------|---------|--------*|
A|*7-7-7-7-|-7-7-7-7-|-9-9-9-9-|-9-9-9-9*|
E|---------|---------|---------|---------|

G|---------|---------|---------|---------|
D|*5-5-5-5-|-5-5-5-5-|-7-7-7-7-|-7-7-7-7*|
A|*--------|---------|---------|--------*|
E|---------|---------|---------|---------|

First Verse:

G|---------|---------|---------|---------|
D|*--------|---------|---------|--------*|
A|*4-4-4-4-|-4-4-4-4-|-7-7-7-7-|-7-7-7-7*|
E|---------|---------|---------|---------|

G|---------|---------|---------|---------|
D|*6-6-6-6-|-6-6-6-6-|---------|--------*|
A|*--------|---------|-6-6-6-6-|-6-6-6-6*|
E|---------|---------|---------|---------|

G|---------|---------|---------|---------|
D|*--------|---------|---------|--------*|
A|*4--4--4-|-4p6--4--|-4p6--4--|-4----6-*|
E|--4--4---|---------|---------|---------|

G|---------|---------|---------|---------|
D|*--------|---------|---------|--------*|
A|*7--7--7-|-7p9--7--|-6--6p7--|--6-7-6-*|
E|--7--7---|---------|---------|---------|

G|---------|---------|---------|---------|
D|*--------|---------|---------|--------*|
A|*4-4-4-4-|-4-4-4-4-|-7-7-7-7-|-7-7-7-7*|
E|---------|---------|---------|---------|

G|---------|---------|---------|---------|
D|*6-6-6-6-|-6-6-6-6-|---------|--------*|
A|*--------|---------|-6-6-6-6-|-6-6-6-6*|
E|---------|---------|---------|---------|

G|---------|---------|---------|---------|
D|*--------|---------|---------|--------*|
A|*4--4--4-|-4p6--4--|-4p6--4--|-4----6-*|
E|--4--4---|---------|---------|---------|

G|---------|---------|---------|---------|
D|*--------|---------|---------|--------*|
A|*7--7--7-|-7p9--7--|-6--6p7--|--6-7-6-*|
E|--7--7---|---------|---------|---------|

Break:

G|---------|---------|---------|---------|
D|*--------|---------|---------|--------*|
A|*--------|---------|---------|--------*|
E|---------|---------|---------|---------|

G|---------|---------|---------|---------|
D|*--------|---------|---------|--------*|
A|*--------|---------|---------|--------*|
E|---------|---------|---------|---------|

G|---------|---------|---------|---------|
D|*7-7-7-7-|-7-7-7-7-|-7-7-7-7-|-7-7-7-7*|
A|*--------|---------|---------|--------*|
E|---------|---------|---------|---------|

G|---------|---------|---------|---------|
D|*--------|---------|---------|--------*|
A|*0-0-0-0-|-0-0-0-0-|-0-0-0-0-|-0-0-0-0*|
E|---------|---------|---------|---------|

Second Verse:

G|---------|---------|---------|---------|
D|*--------|---------|---------|--------*|
A|*4-4-4-4-|-4-4-4-4-|-7-7-7-7-|-7-7-7-7*|
E|---------|---------|---------|---------|

G|---------|---------|---------|---------|
D|*6-6-6-6-|-6-6-6-6-|---------|--------*|
A|*--------|---------|-6-6-6-6-|-6-6-6-6*|
E|---------|---------|---------|---------|

G|---------|---------|---------|---------|
D|*--------|---------|---------|--------*|
A|*4--4--4-|-4p6--4--|-4p6--4--|-4----6-*|
E|--4--4---|---------|---------|---------|

G|---------|---------|---------|---------|
D|*--------|---------|---------|--------*|
A|*7--7--7-|-7p9--7--|-6--6p7--|--6-7-6-*|
E|--7--7---|---------|---------|---------|

G|---------|---------|---------|---------|
D|*--------|---------|---------|--------*|
A|*4-4-4-4-|-4-4-4-4-|-7-7-7-7-|-7-7-7-7*|
E|---------|---------|---------|---------|

G|---------|---------|---------|---------|
D|*6-6-6-6-|-6-6-6-6-|---------|--------*|
A|*--------|---------|-6-6-6-6-|-6-6-6-6*|
E|---------|---------|---------|---------|

G|---------|---------|---------|---------|
D|*--------|---------|---------|--------*|
A|*4--4--4-|-4p6--4--|-4p6--4--|-4----6-*|
E|--4--4---|---------|---------|---------|

G|---------|---------|---------|---------|
D|*--------|---------|---------|--------*|
A|*7--7--7-|-7p9--7--|-6--6p7--|--6-7-6-*|
E|--7--7---|---------|---------|---------|

Pre-Chorus:

G|---------|---------|---------|---------|
D|*--------|---------|---------|--------*|
A|*7-7-7-7-|-7-7-7-7-|-7-7-7-7-|-7-7-7-7*|
E|---------|---------|---------|---------|

Chorus:

G|---------|---------|---------|---------| 
D|*--------|---------|---------|--------*| 
A|*--------|---------|---------|--------*| 
E|-5--5----|-0-0-0-0-|-5----5--|-0-0-0-5-| 

G|---------|---------|---------|---------|
D|*--------|---------|---------|--------*| 
A|*5--5--5h|7----5h7-|-5h7-5h7-|-5h7-5h7*| 
E|---------|---------|---------|---------|

G|---------|---------|---------|---------| 
D|*--------|---------|---------|--------*| 
A|*--------|---------|---------|--------*| 
E|-5--5----|-0-0-0-0-|-5----5--|-0-0-0-5-| 

G|---------|---------|---------|---------|
D|*--------|---------|---------|--------*| 
A|*5-5-5-5-|-5-5-5-5-|-5-5-5-5-|-5-5-5-5*| 
E|---------|---------|---------|---------|

G|---------|---------|---------|---------| 
D|*--------|---------|---------|--------*| 
A|*--------|---------|---------|--------*| 
E|-5--5----|-0-0-0-0-|-5----5--|-0-0-0-5-| 

G|---------|---------|---------|---------|
D|*--------|---------|---------|--------*| 
A|*5--5--5h|7----5h7-|-5h7-5h7-|-5h7-5h7*| 
E|---------|---------|---------|---------|

G|---------|---------|---------|---------| 
D|*--------|---------|---------|--------*| 
A|*--------|---------|---------|--------*| 
E|-5--5----|-0-0-0-0-|-5----5--|-0-0-0-5-| 

G|---------|---------|---------|---------|
D|*--------|---------|---------|--------*| 
A|*5-5-5-5-|-5-5-5-5-|-5-5-5-5-|-5-5-5-5*| 
E|---------|---------|---------|---------|

Interlude:

G|---------|---------|---------|---------|
D|*--------|---------|---------|--------*|
A|*0-------|---------|---------|--------*|
E|---------|---------|---------|---------|

G|---------|---------|---------|---------|
D|*--------|---------|---------|--------*|
A|*--------|---------|---------|--------*|
E|---------|---------|---------|---------|

G|---------|---------|---------|---------|
D|*--------|---------|---------|--------*|
A|*--------|---------|---------|--------*|
E|---------|---------|---------|---------|

G|---------|---------|---------|---------|
D|*--------|---------|---------|--------*|
A|*--------|---------|---------|--------*|
E|---------|---------|---------|---------|

G|---------|---------|---------|---------|
D|*--------|---------|---------|--------*|
A|*7-7-7-7-|-7-7-7-7-|-9-9-9-9-|-9-9-9-9*|
E|---------|---------|---------|---------|

G|---------|---------|---------|---------|
D|*5-5-5-5-|-5-5-5-5-|-7-7-7-7-|-7-7-7-7*|
A|*--------|---------|---------|--------*|
E|---------|---------|---------|---------|

G|---------|---------|---------|---------|
D|*--------|---------|---------|--------*|
A|*7-7-7-7-|-7-7-7-7-|-9-9-9-9-|-9-9-9-9*|
E|---------|---------|---------|---------|

G|---------|---------|---------|---------|
D|*5-5-5-5-|-5-5-5-5-|-7-7-7-7-|-7-7-7-7*|
A|*--------|---------|---------|--------*|
E|---------|---------|---------|---------|

G|---------|---------|---------|---------|
D|*--------|-5-5---7-|---------|-5-5---7*|
A|*7-7---9-|---------|-7-7---9-|--------*|
E|---------|---------|---------|---------|

G|---------|--------7|p9-9-9-9-|7p9-7----|
D|*--------|-5-5---7-|---------|------9\*|
A|*7-7---9-|---------|---------|--------*|
E|---------|---------|---------|---------|

Chours:

Chorus:

G|---------|---------|---------|---------| 
D|*--------|---------|---------|--------*| 
A|*--------|---------|---------|--------*| 
E|-5--5----|-0-0-0-0-|-5----5--|-0-0-0-5-| 

G|---------|---------|---------|---------|
D|*--------|---------|---------|--------*| 
A|*5--5--5h|7----5h7-|-5h7-5h7-|-5h7-5h7*| 
E|---------|---------|---------|---------|

G|---------|---------|---------|---------| 
D|*--------|---------|---------|--------*| 
A|*--------|---------|---------|--------*| 
E|-5--5----|-0-0-0-0-|-5----5--|-0-0-0-5-| 

G|---------|---------|---------|---------|
D|*--------|---------|---------|--------*| 
A|*5-5-5-5-|-5-5-5-5-|-5-5-5-5-|-5-5-5-5*| 
E|---------|---------|---------|---------|

G|---------|---------|---------|---------| 
D|*--------|---------|---------|--------*| 
A|*--------|---------|---------|--------*| 
E|-5--5----|-0-0-0-0-|-5----5--|-0-0-0-5-| 

G|---------|---------|---------|---------|
D|*--------|---------|---------|--------*| 
A|*5--5--5h|7----5h7-|-5h7-5h7-|-5h7-5h7*| 
E|---------|---------|---------|---------|

G|---------|---------|---------|---------| 
D|*--------|---------|---------|--------*| 
A|*--------|---------|---------|--------*| 
E|-5--5----|-0-0-0-0-|-5----5--|-0-0-0-5-| 

G|---------|---------|---------|---------|
D|*--------|---------|---------|--------*| 
A|*5-5-5-5-|-5-5-5-5-|-5-5-5-5-|-5-5-5-5*| 
E|---------|---------|---------|---------|

Outro:

G|---------|---------|---------|---------|
D|*--------|---------|---------|--------*|
A|*--------|---------|---------|--------*|
E|---------|---------|---------|---------|

G|---------|---------|---------|---------|
D|*--------|---------|---------|--------*|
A|*--------|---------|---------|--------*|
E|---------|---------|---------|---------|

G|---------|---------|---------|---------|
D|*--------|---------|---------|--------*|
A|*7-7-7-7-|-7-7-7-7-|-9-9-9-9-|-9-9-9-9*|
E|---------|---------|---------|---------|

G|---------|---------|---------|---------|
D|*5-5-5-5-|-5-5-5-5-|-7-7-7-7-|-7-7-7-7*|
A|*--------|---------|---------|--------*|
E|---------|---------|---------|---------|

Ending:

G|---------|---------|
D|*--------|---------|
A|*7~------|---------|
E|---------|---------|
            
Tabs too difficult? Try these video lessons and learn fast.




comments powered by Disqus
↑ Back to top | Tablatures and chords are parodies/interpretations of the original songs. You may use it for private study, scholarship, research or language learning purposes only