» » »

Daughter Tabs (ver.5)

Artists:  A B C D E F G H I J K L M N O P Q R S T U V W X Y Z # 

Daughter Tabs (ver.5)

Pearl Jam
Rating:
0/5 (0 votes)

Tabs too difficult? Try these video lessons and learn fast.
                Pearl Jam - Don't Call Me Daughter solo


                                             

key:
pm = palm mute
^ bend
/ or \ slide back/forth.
p = pull off
(H) = hold note
is a better way to play it then the recorded version I put up.

Hey guys, I noticed nobodies tabbed out this neat lil solo, so here it is Enjoy!
                                                 G---------12---------12-
the whole way through**
e-------------------------------------------------------------------------------------------------|
B-------------------------------------------------------------------------------------------------|
G---------12-----------12----------12---------12--------------------------------------------------|
D-12h14-----12h14-----12h14-----12h14----12h14p12-----12------------------------------------------|
A---------------------------------------------------------------h14------h14--12h14p12\10-12-10~--|
E-------------------------------------------------------------------------------------------------|

this next part sounds sorta muffled. if you listen to the song it's kinda tough to hear exactly what
he's doing. So I just kinda palm mute some of the following notes and play this lil lick over that
muffled section.
1:52
e-->
B-->                        Play this lil lick twice.. pm etc
G-->
D----------------------------------------------------------------------|
A--------------10--12-12^---12p10h12p10------10~//---------------------|
E--10--12-----------------------------------------12-------------------|

Okay this parts really neat, heres how I play it.
1:57
e------------------------------------------------------------------------|
B------------------------------------------------------------------------|
G---------12h14p12-------------------------------------------------------|
D------12---------------h14p12----------14p12------12--------------------|
A---14-------------------------------h14------------h14-----h14p-12/10~--|
E------------------------------------------------------------------------|

e-----------------------------------------------------------------------------|
B-----------------------------------------------------------------------------|
G---------12h14p12------------------------------------------------------------|
D------12---------------h14p12----------12h14p12------12----------------------|
A---14-------------------------------h14------------------h14-----h14p-12/10--|
E-----------------------------------------------------------------------------|


2:03
e------------------------------------------------------------------------------------|
B--15(h)---------15(h)-------~~~~~~----15------15------------------------------------|
G----------14^---------14^v^(h)--~~~~~------14------14^14p12~(12)--------------------|
D------------------------------------------------------------------------------------|
A------------------------------------------------------------------------------------|
E------------------------------------------------------------------------------------|
            
Tabs too difficult? Try these video lessons and learn fast.


comments powered by Disqus
↑ Back to top | Tablatures and chords are parodies/interpretations of the original songs. You may use it for private study, scholarship, research or language learning purposes only