» » »

Daughter Tabs (ver.3)

Artists:  A B C D E F G H I J K L M N O P Q R S T U V W X Y Z # 

Daughter Tabs (ver.3)

Pearl Jam
Rating:
0/5 (0 votes)

Hard to play? Try these video lessons and learn fast.
                This is basically how it goes, play around 
with it a bit to get the rythm.

Intro, Verse, Chorus and Solo Rythm
|-----------------------------------|
|--0-0-0-0-0-0-0-0-0-0-0-0-0-0-0-0--|
|--0-0-2-4-0-0-2-4-0-0-2-4-2-2-4-2--|
|--0-0-0-0-0-0-0-0-0-0-0-0-0-0-0-0--|
|--x-x-x-x-x-x-x-x-x-x-x-x-x-x-x-x--|
|--3-3-3-3-3-3-3-3-3-3-3-3-3-3-3-3--|

Pre Chorus
|-----------------------|
|--3-3-3-2-2-3-3-3-2-2--|
|--0-0-0-0-0-0-0-0-0-0--|
|--2-2-2-2-2-2-2-2-2-2--|
|--2-2-2-2-2-2-2-2-2-2--|
|--0-0-0-0-0-0-0-0-0-0--|
            
Hard to play? Try these video lessons and learn fast. | Correct




comments powered by Disqus
↑ Back to top | Tablatures and chords are parodies/interpretations of the original songs. You may use it for private study, scholarship, research or language learning purposes only