>
 >
Daughter 1

Daughter 1 Guitar Tabs

Pearl Jam - Daughter 1 chords, tabs, tablatures, lyrics

Guitar lessons | Add/correct | Request | Top 50 tabs Artists:  A B C D E F G H I J K L M N O P Q R S T U V W X Y Z 0-9

Daughter 1 Guitar Tabs – Pearl Jam

CD, Sheet music, Poster

Do you like Daughter 1? Share with your friends now
Bass TabsChordsChords v2Chords v3Drum TabsTabsTabs v2Tabs v3Tabs v4Tabs v5Ukulele
Status: O
X-Status:


e:-----------3-------3-------3-------------------------------------------- ---------------------------------------| B:-3--3h5----3h5---3h5--------3----5--3--0-------------------------------- ------------------------------|
G:--------------------------------4----4-------------0h3h4h3s2---------0-2 b 4 2 0--------0--2b-0---|
D:-----------------------------------------------------------------------0 h2-----------------0h2---------------|
A:------------------------------------------------------------------------ -----------------------------------------| E:------------------------------------------------------------------------ -----------------------------------------| 

e:-----------------------------------------------------------------------| B:-8--8h10h8------------------------------------------repeat----| G:----------------7h9h7------7------------------------once-------| D:----------------------------9-----9--7--5-------------then-------| A:----------------------------------------------------------------------| E:----------------------------------------------------------------------| 

bend till feedback
e:---------------------------10------10--12b--10-------------------------- |
B:--8--8h10h8--10/12------12------------------12---10---8----8b---| G:------------------------------------------------------------------------ -------|
D:------------------------------------------------------------------------ -------|
A:------------------------------------------------------------------------ -------|
E:------------------------------------------------------------------------ -------|

--


Greets all...This being my first contribution to this site, I hope it's
             correct...:)

             All corrections, comments, etc.. welcome, and invited.


Notation:   ^   Hammer-On (Pull-off)
            ~   Bend
            *   Whammy Bar

Key of G:  (First section easiest w/a 3rd fret 2nd position G chord...)

E--------3------3------3------3--------------------------------------------
B---3^5----3^5----3^5----3^5----3^5--3---3---------------------------------
G--------------------------------------4---4--2^0--2^0-----0**--0---0-2-3--
D-------------------------------------------------------2------------------
A--------------------------------------------------------------------------
E--------------------------------------------------------------------------
 (Not too sure here..Vedder's singing)                        
E--------------|-----------------------3--3^7^3----------------------------
B--------------V---------------------------------5^3-----3^5^3----3^5^3----
G---4*******-3~4~3^2^0----0^2--0----------------------4---------4--------4-
D----------------------2---------------------------------------------------
A--------------------------------------------------------------------------
E--------------------------------------------------------------------------
										  (let ring)
E---3--3^7^3----------3---------3--------10-10-------10----10--------------
B-------------5^3-----3^5^3-----3^5^3----------10~12~~~~12~~~~12~10^8-10^8-
G------------------4---------4--------4----------------(Hold bend for all--
D-------------------------------------------------------twelves until end)-
A--------------------------------------------------------------------------
E--------------------------------------------------------------------------
 
Enjoy!





Comments


Popular Pearl Jam tabs & chords
Porch 3 Bass Tabs
Love Boat Captain 1 Chords
Small Town Chords
Crazy Mary Tabs
Future Days Tabs
Greendisease Tabs
Long Road 1 Tabs
Man Of The Hour Tabs
Whipping Tabs
In My Tree Ukulele


Song lyrics



↑ Back to top | Tablatures and chords are parodies/interpretations of the original songs. You may use it for private study, scholarship, research or language learning purposes only
© 2014 AZChords.com Contact us | Privacy policy | DMCA | Add/correct tabs | Request tabs | Top 50 tabs