» » »

Baba O' Riley Tabs (ver.2)

Artists:  A B C D E F G H I J K L M N O P Q R S T U V W X Y Z # 

Baba O' Riley Tabs (ver.2)

Pearl Jam
Rating:
0/5 (0 votes)

Hard to play? Try these video lessons and learn fast.
                Good Song only hard part is beginning.

------------11-11-----------------11-11---------------------------------------
------11-11-------11-11-----11-11-------11-11---------------------------------
-9-9--------------------9-9---------------------------------------------------
 Mike                                                                         

----4--2----------------------------------------------------------------------
-2--4--2----------------------------------------------------------------------
-2--2--0----------------------------------------------------------------------
-0----------------------------------------------------------------------------
 Stone                                                                        

-12---------12h14b15-12h14b15-------------------------------------------------
---12-12h14-------------------14-12-14-12-------------------------------------
 Mike                                                                         

-11-12-14-11-12-14-11h12h14-11-12-14-11-12-14-11h12h14-11-12-14-11-12-14------
 Solo                                                                         

-11h12h14-11-12-14-11-12-14-11h12h14-11h12-11h12-11h12-11h12-11h12-11h12-11---
                                                                              

---11h12-11h12-11h12-11h12-11h12-11h12-14----11h12-11h12-11-11-11-11h12-------
-12---------------------------------------12----------------------------------
                                                                              

-11h12-11-11-11-11*12---------------------------------------------------------
                                                                              

-4-4-2-2-----7-7--------------------------------------------------------------
-4-4-2-2-2-2-7-7--------------------------------------------------------------
-2-2-0-0-2-2-5-5--------------------------------------------------------------
---------0-0------------------------------------------------------------------
 Background                                                                   

---4-2------------------------------------------------------------------------
-2-4-2------------------------------------------------------------------------
-2-2-0------------------------------------------------------------------------
-0----------------------------------------------------------------------------
 End
            
Hard to play? Try these video lessons and learn fast. | Correct




comments powered by Disqus
↑ Back to top | Tablatures and chords are parodies/interpretations of the original songs. You may use it for private study, scholarship, research or language learning purposes only