» » »

Baba O' Riley Tabs (ver.1)

Artists:  A B C D E F G H I J K L M N O P Q R S T U V W X Y Z # 

Baba O' Riley Tabs (ver.1)

Pearl Jam
Rating:
0/5 (0 votes)

Hard to play? Try these video lessons and learn fast.
                Pearl Jam
"Baba O'Riley"
Here is how Pearl Jam played this song on their 2000 US Tour
key:
h=hammer on
p=pull off
b=bend
r=release

Verse 1:(palm mute)
E------------------------------------------------------------------
B---------5-5-------------5-5-------------5-5-------------5-5------
G-----4-4-----4-4-----4-4-----4-4-----4-4-----4-4-----4-4-----4-4--
D-2-2-------------2-2-------------2-2-------------2-2--------------
A------------------------------------------------------------------
E------------------------------------------------------------------
                                                            repeat 10x           

E------------------------------------------------------------------
B------------------------------------------------------------------
G--------4---2------------4---2------------4---2------------4---2--
D--2-----4---2------2-----4---2------2-----4---2------2-----4---2--
A--2-----2---0------2-----2---0------2-----2---0------2-----2---0--
E--0----------------0----------------0----------------0------------
 

E------------------------------------------------------------------
B------------------------------------------------------------------
G--4----4----4-----------------------------------------------------
D--4----4----4-----------------------------------------------------
A--2----2----2-----------------------------------------------------
E------------------------------------------------------------------
              Don't cry don't raise your eye it's only teenage wasteland    
Verse 2:
E------------------------------------------------------------------
B------------------------------------------------------------------
G---------------4---2-------------------------4------2-------------
D-----2---------4---2------2------------------4------2-------------
A-----2---------2---0------2------------------2------0-------------
E-----0--------------------0---------------------------------------
       Sally take my hand   we'll travel south 'cross land...repeat 4x =                   
Little riff before Chorus:
E-12---------------12-12---14b15r14-12-14b15r14-12h14p12---------------
B------12-12-12h14----------------------------------------14p12-14-12--
G----------------------------------------------------------------------
D----------------------------------------------------------------------
A----------------------------------------------------------------------
E----------------------------------------------------------------------
                                                                            

Chorus
E------------------------------------------------------------------
B------------------------------------------------------------------
G-----------------4----2--------------------------4----2-----------
D-----2-----------4----2---------------2----------4----2-----------
A-----2-----------2----0---------------2----------2----0-----------
E-----0--------------------------------0---------------------------    
      Wasteland  oh yeah  its only teenage wasteland      repeat 1x     
ending for the chorus:      
E------------------------------------------------------------------
B------------------------------------------------------------------
G-----4------4------2------2--------------------7------7-----------
D-----4------4------2------2------2------2------7------7-----------
A-----2------2------0------0------2------2------5------5-----------
E---------------------------------0------0-------------------------
 all  Wasted     
                                                               
E-11--12--14--11--12--14--11-12-14--11--12--14--11--12--14--11-12-14--
B---------------------------------------------------------------------
G---------------------------------------------------------------------
D---------------------------------------------------------------------
A---------------------------------------------------------------------
E---------------------------------------------------------------------


E-11h12-11h12-11h12-11h12-11h12-11h12-11--------------------------
B----------------------------------------12-----------------------
G-----------------------------------------------------------------
D-----------------------------------------------------------------
A-----------------------------------------------------------------
E-----------------------------------------------------------------


E-11h12-11h12-11h12-11h12-11h12-11h12-14--------------------------
B----------------------------------------12-----------------------
G-----------------------------------------------------------------
D-----------------------------------------------------------------
A-----------------------------------------------------------------
E-----------------------------------------------------------------
                                 
I think this is 100% correct but I'm sure they play it different at each 
            
Hard to play? Try these video lessons and learn fast. | Correct




comments powered by Disqus
↑ Back to top | Tablatures and chords are parodies/interpretations of the original songs. You may use it for private study, scholarship, research or language learning purposes only