» » »

Bad Boy For Life Bass tabs (ver.1)

Artists:  A B C D E F G H I J K L M N O P Q R S T U V W X Y Z # 

Bad Boy For Life Bass tabs (ver.1)

P Diddy
Rating:
0/5 (0 votes)

Hard to play? Try these video lessons and learn fast.
                "Origonally tabed by: Some guy 
corrected by: EC 
Re-corrected by: Brian The Loser 

I'm not a big fan of rap, but I do like this song, and when I played it it didn't really sound all that right. So I THINK this is a wee bit better. I'm still not sure about the Intro, it sounds right, but like I said, I'm not all that sure. 

Intro: 

G|---------------------| 
D|---------------------| 
A|-----0-4-2-0---4-2-0-| 
E|-2-2-----------------| 

Main riff:( x means a dead note, and for every x you see hit it four times, like in the actual song.) 

G|----------------------------------------------------------| 
D|-------7-4-2-4-2-x----------------------------------------| 
A|-------------------4-4-x-4-2-4-x-4-4-2-0------4-2-0---0---| 
E|-2-2-x------------------------------------2-2-------2---2-|
"            
Hard to play? Try these video lessons and learn fast. | Correct




comments powered by Disqus
↑ Back to top | Tablatures and chords are parodies/interpretations of the original songs. You may use it for private study, scholarship, research or language learning purposes only