» » »

Bad Boy For Life Tabs (ver.1)

Artists:  A B C D E F G H I J K L M N O P Q R S T U V W X Y Z # 

Bad Boy For Life Tabs (ver.1)

P Diddy
Rating:
0/5 (0 votes)
Tabs too difficult? Try these video lessons and learn fast.
                "(1)
		      BAD BOYS FOR LIFE - P Diddy



INTRO
e|---------------------------------------------------------------------------|
B|---------------------------------------------------------------------------|
G|---------------------------------------------------------------------------|
D|------------------------2--------------------------------------------------|
A|-----0--4--2--0----4-2-----------------------------------------------------|
E|--2-------------2----------------------------------------------------------|

REST OF SONG
e|---------------------------------------------------------------------------|
B|---------------------------------------------------------------------------|
G|------------2--------------------------------------------------------------|
D|--------2-------4---2-4---2------------------------------------------------|
A|----------------------------4---4-2--4---4--4-2--0-------4-2-0-------------|
E|--2-2----------------------------------------------2-2----------2-0-2------|
"            
Tabs too difficult? Try these video lessons and learn fast.


comments powered by Disqus
↑ Back to top | Tablatures and chords are parodies/interpretations of the original songs. You may use it for private study, scholarship, research or language learning purposes only