» » »

P Diddy, Bad Boy For Life Tabs (ver.2)

Artists:  A B C D E F G H I J K L M N O P Q R S T U V W X Y Z # 

Bad Boy For Life Tabs (ver.2)

P Diddy Tabs
Rating:
0/5 (0 votes)
Bad Boy For Life lessons Tabs too difficult? Try these video lessons and learn fast
                "(2)
I'm sure that this tab is right.

Intro:
|----------------------------
|----------------------------
|----------------------------  (
|----------------------------
|---0-4-2-0-4-2-0-4----------
|-2--------------------------

  (repeated through the entire song)
|---------------------------------------------------------
|---------------------------------------------------------
|---------------------------------------------------------
|---------------------------------------------------------
|------12-9-7-9--7-4--2-4-4--4-2-0-------4-2-0------------
|-2-2-----------------------------2-2-2---------2-0-2-----


that's the whole song...yeah it's that easy.
"            
Submit corrections

comments powered by Disqus
↑ Back to top | P Diddy Tabs for Bad Boy For Life. Lyrics for acoustic guitar and electric guitar. Tablatures and chords are parodies/interpretations of the original songs. You may use it for private study, scholarship, research or language learning purposes only