» » »

Paul Simon, 50 Ways To Leave Your Lover Bass tabs (ver.1)

Artists:  A B C D E F G H I J K L M N O P Q R S T U V W X Y Z # 

50 Ways To Leave Your Lover Bass tabs (ver.1)

Paul Simon Tabs
 Rating:
3.7/5 (6 votes)
50 Ways To Leave Your Lover lessons Tabs too difficult? Try these video lessons and learn fast
1
                You probably see this a lot but: my first tab, so, don't be mad if it's wrong, somewhere.



G|--------5-4/9-8-11-4-----------------------------| 
D|--5/12-----------------2-1----------2/7--2-------| 
A|------------------------------3-2----------------| 
E|-------------------------------------------------| 

G|--------5-4/9-8-11-4------------------------------------| 
D|--5/12-----------------2-1----------2/7--2----2/7--2----| 
A|------------------------------3-2-----------------------| 
E|--------------------------------------------------------| 

G|-----------3333------5555-----------------------------| 
D|----5555-----------------------555--------------------| 
A|------------------------------------------------------| 
E|------------------------------------------------------| 

G|---------------3333------5555----------------------------| 
D|--345-5555-----------------------555---------------------| 
A|---------------------------------------------------------| 
E|---------------------------------------------------------| 

G|---------------3333------5555----------------------------| 
D|--345-5555-----------------------555---------------------| 
A|---------------------------------------------------------| 
E|---------------------------------------------------------| 

G|---------------3333--------------------------------------| 
D|--345-5555-------------101010/5--------------------------| 
            
Submit corrections

comments powered by Disqus
↑ Back to top | Paul Simon Bass for 50 Ways To Leave Your Lover. Lyrics for acoustic guitar and electric guitar. 1 Tablatures and chords are parodies/interpretations of the original songs. You may use it for private study, scholarship, research or language learning purposes only