» » »

Paul Simon, 50 Ways To Leave Your Lover Tabs (ver.1)

Artists:  A B C D E F G H I J K L M N O P Q R S T U V W X Y Z # 

50 Ways To Leave Your Lover Tabs (ver.1)

Paul Simon Tabs
Rating:
0/5 (0 votes)
50 Ways To Leave Your Lover lessons Tabs too difficult? Try these video lessons and learn fast
                Paul Simon



VERSE:

E|-0---2-----------|--0---2---2-----|
A|-0---0---0---1-0-|--0---1---4---0-|
D|-0---2---0---2-2-|--0---2---2---0-|
G|-2---0---2---1-1-|--2---1---4---1-|
B|-2-------3---2-2-|--2-----------2-|
E|-3---------------|--3-------------|

E|-0---2-----------|--0---0--0--|
A|-0---0---0---1-0-|--0---1--0--|
D|-0---2---0---2-2-|--0---2--0--|
G|-2---0---2---1-1-|--2---2--2--|
B|-2-------3---2-2-|--2---0--2--|
E|-3---------------|--3------0--|

Repeat as necessary.

CHORUS:

E|-3-3-3-3-3-3-3-1-1-1-1-1-1-5-5-5-5-5-5--|
A|-3-3-3-3-3-3-3-3-3-3-3-3-3-5-5-5-5-5-5--|
D|-0-0-0-0-0-0-0-3-3-3-3-3-3-5-5-5-5-5-5--|
G|-0-0-0-0-0-0-0-3-3-3-3-3-3-5-5-5-5-5-5--|
B|-2-2-2-2-2-2-2-1-1-1-1-1-1-3-3-3-3-3-3--|
E|-3-3-3-3-3-3-3--------------------------|

Repeat as necessary.

It takes some getting used to, but it's relatively easy.
            
Submit corrections

comments powered by Disqus
↑ Back to top | Paul Simon Tabs for 50 Ways To Leave Your Lover. Lyrics for acoustic guitar and electric guitar. Tablatures and chords are parodies/interpretations of the original songs. You may use it for private study, scholarship, research or language learning purposes only