» » »

Paul Mccartney, Dance Tonight Tabs (ver.2)

Artists:  A B C D E F G H I J K L M N O P Q R S T U V W X Y Z # 

Dance Tonight Tabs (ver.2)

Paul Mccartney Tabs
Rating:
5/5 (4 votes)
Dance Tonight lessons Tabs too difficult? Try these video lessons and learn fast
                

Mandolin arranged for acoustic guitar

If you can, try playing the chords more like this
 F  C  Bb
 13 12 10
 13 13 11
 14 12 10
 15 14 12
 x  x  x
 x  x  x
With that extra note added on

I used shortened chords in the tab because the above
 chords are difficult to play on most acoustic guitars


Strum Pattern
-------------
. . . .                  . . . .
v v^ ^v^  and sometimes  V V^v^v^



Part A

    F                   C                   F                   C
e|--13--13-13--13-13-13-12--12-12--12-12-12-13--13-13--13-13-13-12--12-12--12-12-12--|
B|--13--13-13--13-13-13-13--13-13--13-13-13-13--13-13--13-13-13-13--13-13--13-13-13--|
G|--14--14-14--14-14-14-12--12-12--12-12-12-14--14-14--14-14-14-12--12-12--12-12-12--|
D|-----------------------------------------------------------------------------------|
A|-----------------------------------------------------------------------------------|
E|-----------------------------------------------------------------------------------|

    Bb                  C                   F                   F
e|--10--10-10--10-10-10-12--12-12--12-12-12-13--13-13--13-13-13-13--13-13--13-13-13--|
B|--11--11-11--11-11-11-13--13-13--13-13-13-13--13-13--13-13-13-13--13-13--13-13-13--|
G|--10--10-10--10-10-10-12--12-12--12-12-12-14--14-14--14-14-14-14--14-14--14-14-14--|
D|-----------------------------------------------------------------------------------|
A|-----------------------------------------------------------------------------------|
E|-----------------------------------------------------------------------------------|



Part B

    EbM7                                    F
e|--10--10-10--10-10-10-10--10-10--10-10-10-13--13-13--13-13-13-13--13-13--13-13-13--|
B|--8---8--8---8--8--8--8---8--8---8--8--8--13--13-13--13-13-13-13--13-13--13-13-13--|
G|--8---8--8---8--8--8--8---8--8---8--8--8--14--14-14--14-14-14-14--14-14--14-14-14--|
D|-----------------------------------------------------------------------------------|
A|-----------------------------------------------------------------------------------|
E|-----------------------------------------------------------------------------------|

    EbM7                                    C
e|--10--10-10--10-10-10-10--10-10--10-10-10-12--12-12--12-12-12-12--12-12--12-12-12--|
B|--8---8--8---8--8--8--8---8--8---8--8--8--13--13-13--13-13-13-13--13-13--13-13-13--|
G|--8---8--8---8--8--8--8---8--8---8--8--8--12--12-12--12-12-12-12--12-12--12-12-12--|
D|-----------------------------------------------------------------------------------|
A|-----------------------------------------------------------------------------------|
E|-----------------------------------------------------------------------------------|


Part C

    Bb                                      F#
e|--10--10-10--10-10-10-10--10-10--10-10-10-14--14-14--14-14-14-14--14-14--14-14-14--|
B|--11--11-11--11-11-11-11--11-11--11-11-11-11--11-11--11-11-11-11--11-11--11-11-11--|
G|--10--10-10--10-10-10-10--10-10--10-10-10-11--11-11--11-11-11-11--11-11--11-11-11--|
D|-----------------------------------------------------------------------------------|
A|-----------------------------------------------------------------------------------|
E|-----------------------------------------------------------------------------------|

    Gm                                      Gm
e|--10--10-10--10-10-10-10--10-10--10-10-10-10--10-10--10-10-10-10--10-10--10-10-10--|
B|--11--11-11--11-11-11-11--11-11--11-11-11-11--11-11--11-11-11-11--11-11--11-11-11--|
G|--12--12-12--12-12-12-12--12-12--12-12-12-12--12-12--12-12-12-12--12-12--12-12-12--|
D|-----------------------------------------------------------------------------------|
A|-----------------------------------------------------------------------------------|
E|-----------------------------------------------------------------------------------|





   Whistling (over Part A)
e|-----8----------------8-------------------8----6--5-----------6--5-----------------|
B|------------------------------------------------------8---------------6------------|
G|--5----------------5---------------------------------------------------------------|
D|-----------------------------------------------------------------------------------|
A|-----------------------------------------------------------------------------------|
E|-----------------------------------------------------------------------------------|



   Electric Guitar (over Part C)
e|-----------------------------------------------------------------------------------|
B|-----------------------------------------------------------------------------------|
G|-----------------------------------------------------------------------------------|
D|--3-------------------4-------------------5----------------------------------------|
A|--------------------------------------------------------------5---3----------------|
E|----------------------------------------------------------------------6------------|

                                                              \            /
                                                             this part then repeats
                                                             on a second guitar

Part A x2
Part B x1
Part A x2
Part B x1
Part A x1
Part C x2
Part A x2
Part B x1
Part A x1 (then repeat 2nd half twice more)



Easy and fun to play
            

comments powered by Disqus
↑ Back to top | Paul Mccartney Tabs for Dance Tonight. Lyrics for acoustic guitar and electric guitar. Tablatures and chords are parodies/interpretations of the original songs. You may use it for private study, scholarship, research or language learning purposes only