» » »

Paul Mccartney, Dance Tonight Tabs (ver.1)

Artists:  A B C D E F G H I J K L M N O P Q R S T U V W X Y Z # 

Dance Tonight Tabs (ver.1)

Paul Mccartney Tabs
 Rating:
4.2/5 (5 votes)
Dance Tonight lessons Tabs too difficult? Try these video lessons and learn fast
1
                                                Dance Tonight                                   


Track 1 (Capo 8)
                       Q    E  E  E  E  E  E     Q    E  E  E  E  E  E     
E||-------|-------||---5----5--5--5--5--5--5--|--4----4--4--4--4--4--4---||
B||-------|-------||---2----2--2--2--2--2--2--|--2----2--2--2--2--2--2---||
G||-------|-------||*--2----2--2--2--2--2--2--|--4----4--4--4--4--4--4--*||
D||-------|-------||*--2----2--2--2--2--2--2--|--2----2--2--2--2--2--2--*||
A||-------|-------||--------------------------|--------------------------||
E||-------|-------||--------------------------|--------------------------||


  Q    E  E  E  E  E  E     Q    E  E  E  E  E  E     Q    E  E  E  E  E  E   
--2----2--2--2--2--2--2--|--4----4--4--4--4--4--4--|--5----5--5--5--5--5--5--|
--3----3--3--3--3--3--3--|--5----5--5--5--5--5--5--|--2----2--2--2--2--2--2--|
--2----2--2--2--2--2--2--|--4----4--4--4--4--4--4--|--2----2--2--2--2--2--2--|
--0----0--0--0--0--0--0--|-------------------------|--2----2--2--2--2--2--2--|
-------------------------|-------------------------|-------------------------|
-------------------------|-------------------------|-------------------------|


  Q    E  E  E  E  E  E       Q    E  E  E  E  E  E     Q    E  E  E  E  E  E   
--5----5--5--5--5--5--5--||---5----5--5--5--5--5--5--|--4----4--4--4--4--4--4--|
--2----2--2--2--2--2--2--||---2----2--2--2--2--2--2--|--2----2--2--2--2--2--2--|
--2----2--2--2--2--2--2--||*--2----2--2--2--2--2--2--|--4----4--4--4--4--4--4--|
--2----2--2--2--2--2--2--||*--2----2--2--2--2--2--2--|--2----2--2--2--2--2--2--|
-------------------------||--------------------------|-------------------------|
-------------------------||--------------------------|-------------------------|


  Q    E  E  E  E  E  E     Q    E  E  E  E  E  E     Q    E  E  E  E  E  E   
--5----5--5--5--5--5--5--|--4----4--4--4--4--4--4--|--2----2--2--2--2--2--2--|
--2----2--2--2--2--2--2--|--2----2--2--2--2--2--2--|--3----3--3--3--3--3--3--|
--2----2--2--2--2--2--2--|--4----4--4--4--4--4--4--|--2----2--2--2--2--2--2--|
--2----2--2--2--2--2--2--|--2----2--2--2--2--2--2--|--0----0--0--0--0--0--0--|
-------------------------|-------------------------|-------------------------|
-------------------------|-------------------------|-------------------------|


  Q    E  E  E  E  E  E     Q    E  E  E  E  E  E     Q    E  E  E  E  E  E     
--4----4--4--4--4--4--4--|--5----5--5--5--5--5--5--|--5----5--5--5--5--5--5---||
--5----5--5--5--5--5--5--|--2----2--2--2--2--2--2--|--2----2--2--2--2--2--2---||
--4----4--4--4--4--4--4--|--2----2--2--2--2--2--2--|--2----2--2--2--2--2--2--*||
-------------------------|--2----2--2--2--2--2--2--|--2----2--2--2--2--2--2--*||
-------------------------|-------------------------|--------------------------||
-------------------------|-------------------------|--------------------------||


  Q    E  E  E  E  E  E     Q    E  E  E  E  E  E     Q    E  E  E  E  E  E   
--2----2--2--2--2--2--2--|--2----2--2--2--2--2--2--|--5----5--5--5--5--5--5--|
--3----3--3--3--3--3--3--|--3----3--3--3--3--3--3--|--2----2--2--2--2--2--2--|
--0----0--0--0--0--0--0--|--0----0--0--0--0--0--0--|--2----2--2--2--2--2--2--|
-------------------------|-------------------------|--2----2--2--2--2--2--2--|
-------------------------|-------------------------|-------------------------|
-------------------------|-------------------------|-------------------------|


  Q    E  E  E  E  E  E     Q    E  E  E  E  E  E     Q    E  E  E  E  E  E   
--5----5--5--5--5--5--5--|--2----2--2--2--2--2--2--|--2----2--2--2--2--2--2--|
--2----2--2--2--2--2--2--|--3----3--3--3--3--3--3--|--3----3--3--3--3--3--3--|
--2----2--2--2--2--2--2--|--0----0--0--0--0--0--0--|--0----0--0--0--0--0--0--|
--2----2--2--2--2--2--2--|-------------------------|-------------------------|
-------------------------|-------------------------|-------------------------|
-------------------------|-------------------------|-------------------------|


  Q    E  E  E  E  E  E     Q    E  E  E  E  E  E       Q    E  E  E  E  E  E   
--4----4--4--4--4--4--4--|--4----4--4--4--4--4--4--||---5----5--5--5--5--5--5--|
--5----5--5--5--5--5--5--|--5----5--5--5--5--5--5--||---2----2--2--2--2--2--2--|
--4----4--4--4--4--4--4--|--4----4--4--4--4--4--4--||*--2----2--2--2--2--2--2--|
-------------------------|-------------------------||*--2----2--2--2--2--2--2--|
-------------------------|-------------------------||--------------------------|
-------------------------|-------------------------||--------------------------|


  Q    E  E  E  E  E  E     Q    E  E  E  E  E  E     Q    E  E  E  E  E  E   
--4----4--4--4--4--4--4--|--5----5--5--5--5--5--5--|--4----4--4--4--4--4--4--|
--2----2--2--2--2--2--2--|--2----2--2--2--2--2--2--|--2----2--2--2--2--2--2--|
--4----4--4--4--4--4--4--|--2----2--2--2--2--2--2--|--4----4--4--4--4--4--4--|
--2----2--2--2--2--2--2--|--2----2--2--2--2--2--2--|--2----2--2--2--2--2--2--|
-------------------------|-------------------------|-------------------------|
-------------------------|-------------------------|-------------------------|


  Q    E  E  E  E  E  E     Q    E  E  E  E  E  E     Q    E  E  E  E  E  E   
--2----2--2--2--2--2--2--|--4----4--4--4--4--4--4--|--5----5--5--5--5--5--5--|
--3----3--3--3--3--3--3--|--5----5--5--5--5--5--5--|--2----2--2--2--2--2--2--|
--2----2--2--2--2--2--2--|--4----4--4--4--4--4--4--|--2----2--2--2--2--2--2--|
--0----0--0--0--0--0--0--|-------------------------|--2----2--2--2--2--2--2--|
-------------------------|-------------------------|-------------------------|
-------------------------|-------------------------|-------------------------|


  Q    E  E  E  E  E  E       Q    E  E  E  E  E  E     Q    E  E  E  E  E  E   
--5----5--5--5--5--5--5---||--2----2--2--2--2--2--2--|--2----2--2--2--2--2--2--|
--2----2--2--2--2--2--2---||--3----3--3--3--3--3--3--|--3----3--3--3--3--3--3--|
--2----2--2--2--2--2--2--*||--0----0--0--0--0--0--0--|--0----0--0--0--0--0--0--|
--2----2--2--2--2--2--2--*||-------------------------|-------------------------|
--------------------------||-------------------------|-------------------------|
--------------------------||-------------------------|-------------------------|


  Q    E  E  E  E  E  E     Q    E  E  E  E  E  E     Q    E  E  E  E  E  E   
--5----5--5--5--5--5--5--|--5----5--5--5--5--5--5--|--2----2--2--2--2--2--2--|
--2----2--2--2--2--2--2--|--2----2--2--2--2--2--2--|--3----3--3--3--3--3--3--|
--2----2--2--2--2--2--2--|--2----2--2--2--2--2--2--|--0----0--0--0--0--0--0--|
--2----2--2--2--2--2--2--|--2----2--2--2--2--2--2--|-------------------------|
-------------------------|-------------------------|-------------------------|
-------------------------|-------------------------|-------------------------|


  Q    E  E  E  E  E  E     Q    E  E  E  E  E  E     Q    E  E  E  E  E  E   
--2----2--2--2--2--2--2--|--4----4--4--4--4--4--4--|--4----4--4--4--4--4--4--|
--3----3--3--3--3--3--3--|--5----5--5--5--5--5--5--|--5----5--5--5--5--5--5--|
--0----0--0--0--0--0--0--|--4----4--4--4--4--4--4--|--4----4--4--4--4--4--4--|
-------------------------|-------------------------|-------------------------|
-------------------------|-------------------------|-------------------------|
-------------------------|-------------------------|-------------------------|


  Q    E  E  E  E  E  E     Q    E  E  E  E  E  E     Q    E  E  E  E  E  E   
--5----5--5--5--5--5--5--|--4----4--4--4--4--4--4--|--5----5--5--5--5--5--5--|
--2----2--2--2--2--2--2--|--2----2--2--2--2--2--2--|--2----2--2--2--2--2--2--|
--2----2--2--2--2--2--2--|--4----4--4--4--4--4--4--|--2----2--2--2--2--2--2--|
--2----2--2--2--2--2--2--|--2----2--2--2--2--2--2--|--2----2--2--2--2--2--2--|
-------------------------|-------------------------|-------------------------|
-------------------------|-------------------------|-------------------------|


  Q    E  E  E  E  E  E     Q    E  E  E  E  E  E     Q    E  E  E  E  E  E   
--4----4--4--4--4--4--4--|--2----2--2--2--2--2--2--|--4----4--4--4--4--4--4--|
--2----2--2--2--2--2--2--|--3----3--3--3--3--3--3--|--5----5--5--5--5--5--5--|
--4----4--4--4--4--4--4--|--2----2--2--2--2--2--2--|--4----4--4--4--4--4--4--|
--2----2--2--2--2--2--2--|--0----0--0--0--0--0--0--|-------------------------|
-------------------------|-------------------------|-------------------------|
-------------------------|-------------------------|-------------------------|


  Q    E  E  E  E  E  E     Q    E  E  E  E  E  E       Q    E  E  E  E  E  E   
--5----5--5--5--5--5--5--|--5----5--5--5--5--5--5--||---2----2--2--2--2--2--2--|
--2----2--2--2--2--2--2--|--2----2--2--2--2--2--2--||---3----3--3--3--3--3--3--|
--2----2--2--2--2--2--2--|--2----2--2--2--2--2--2--||*--2----------------------|
--2----2--2--2--2--2--2--|--2----2--2--2--2--2--2--||*-------------------------|
-------------------------|-------------------------||--------------------------|
-------------------------|-------------------------||--------------------------|


  Q    E  E  E  E  E  E     Q    E  E  E  E  E  E     Q    E  E  E  E  E  E   
--2----2--2--2--2--2--2--|--2----2--2--2--2--2--2--|--2----2--2--2--2--2--2--|
--3----3--3--3--3--3--3--|--3----3--3--3--3--3--3--|--3----3--3--3--3--3--3--|
-------------------------|--3----------------------|-------------------------|
-------------------------|-------------------------|-------------------------|
-------------------------|-------------------------|-------------------------|
-------------------------|-------------------------|-------------------------|


  Q    E  E  E  E  E  E     Q    E  E  E  E  E  E     Q    E  E  E  E  E  E   
--2----2--2--2--2--2--2--|--2----2--2--2--2--2--2--|--2----2--2--2--2--2--2--|
--3----3--3--3--3--3--3--|--3----3--3--3--3--3--3--|--3----3--3--3--3--3--3--|
--4----------------------|-------------------------|-------------------------|
-------------------------|-------------------------|-------------------------|
-------------------------|-------------------------|-------------------------|
-------------------------|-------------------------|-------------------------|


  Q    E  E  E  E  E  E             Q    E  E  E  E  E  E   
--2----2--2--2--2--2--2---||-----|--5----5--5--5--5--5--5--|
--3----3--3--3--3--3--3---||-----|--2----2--2--2--2--2--2--|
-------------------------*||-----|--2----2--2--2--2--2--2--|
-------------------------*||-----|--2----2--2--2--2--2--2--|
--------------------------||-----|-------------------------|
--------------------------||-----|-------------------------|


  Q    E  E  E  E  E  E     Q    E  E  E  E  E  E     Q    E  E  E  E  E  E   
--4----4--4--4--4--4--4--|--5----5--5--5--5--5--5--|--4----4--4--4--4--4--4--|
--2----2--2--2--2--2--2--|--2----2--2--2--2--2--2--|--2----2--2--2--2--2--2--|
--4----4--4--4--4--4--4--|--2----2--2--2--2--2--2--|--4----4--4--4--4--4--4--|
--2----2--2--2--2--2--2--|--2----2--2--2--2--2--2--|--2----2--2--2--2--2--2--|
-------------------------|-------------------------|-------------------------|
-------------------------|-------------------------|-------------------------|


  Q    E  E  E  E  E  E     Q    E  E  E  E  E  E     Q    E  E  E  E  E  E   
--2----2--2--2--2--2--2--|--4----4--4--4--4--4--4--|--5----5--5--5--5--5--5--|
--3----3--3--3--3--3--3--|--5----5--5--5--5--5--5--|--2----2--2--2--2--2--2--|
--2----2--2--2--2--2--2--|--4----4--4--4--4--4--4--|--2----2--2--2--2--2--2--|
--0----0--0--0--0--0--0--|-------------------------|--2----2--2--2--2--2--2--|
-------------------------|-------------------------|-------------------------|
-------------------------|-------------------------|-------------------------|


                            A                                                 
  Q    E  E  E  E  E  E     Q    E  E  E  E  E  E     Q    E  E  E  E  E  E   
--5----5--5--5--5--5--5--|--5----5--5--5--5--5--5--|--4----4--4--4--4--4--4--|
--2----2--2--2--2--2--2--|--2----2--2--2--2--2--2--|--2----2--2--2--2--2--2--|
--2----2--2--2--2--2--2--|--2----2--2--2--2--2--2--|--4----4--4--4--4--4--4--|
--2----2--2--2--2--2--2--|--2----2--2--2--2--2--2--|--2----2--2--2--2--2--2--|
-------------------------|-------------------------|-------------------------|
-------------------------|-------------------------|-------------------------|


  Q    E  E  E  E  E  E     Q    E  E  E  E  E  E     Q    E  E  E  E  E  E   
--5----5--5--5--5--5--5--|--4----4--4--4--4--4--4--|--2----2--2--2--2--2--2--|
--2----2--2--2--2--2--2--|--2----2--2--2--2--2--2--|--3----3--3--3--3--3--3--|
--2----2--2--2--2--2--2--|--4----4--4--4--4--4--4--|--2----2--2--2--2--2--2--|
--2----2--2--2--2--2--2--|--2----2--2--2--2--2--2--|--0----0--0--0--0--0--0--|
-------------------------|-------------------------|-------------------------|
-------------------------|-------------------------|-------------------------|


  Q    E  E  E  E  E  E     Q    E  E  E  E  E  E     Q    E  E  E  E  E  E   
--4----4--4--4--4--4--4--|--5----5--5--5--5--5--5--|--5----5--5--5--5--5--5--|
--5----5--5--5--5--5--5--|--2----2--2--2--2--2--2--|--2----2--2--2--2--2--2--|
--4----4--4--4--4--4--4--|--2----2--2--2--2--2--2--|--2----2--2--2--2--2--2--|
-------------------------|--2----2--2--2--2--2--2--|--2----2--2--2--2--2--2--|
-------------------------|-------------------------|-------------------------|
-------------------------|-------------------------|-------------------------|


  Q    E  E  E  E  E  E     Q    E  E  E  E  E  E     Q    E  E  E  E  E  E   
--2----2--2--2--2--2--2--|--2----2--2--2--2--2--2--|--5----5--5--5--5--5--5--|
--3----3--3--3--3--3--3--|--3----3--3--3--3--3--3--|--2----2--2--2--2--2--2--|
--0----0--0--0--0--0--0--|--0----0--0--0--0--0--0--|--2----2--2--2--2--2--2--|
-------------------------|-------------------------|--2----2--2--2--2--2--2--|
-------------------------|-------------------------|-------------------------|
-------------------------|-------------------------|-------------------------|


  Q    E  E  E  E  E  E     Q    E  E  E  E  E  E     Q    E  E  E  E  E  E   
--5----5--5--5--5--5--5--|--2----2--2--2--2--2--2--|--2----2--2--2--2--2--2--|
--2----2--2--2--2--2--2--|--3----3--3--3--3--3--3--|--3----3--3--3--3--3--3--|
--2----2--2--2--2--2--2--|--0----0--0--0--0--0--0--|--0----0--0--0--0--0--0--|
--2----2--2--2--2--2--2--|-------------------------|-------------------------|
-------------------------|-------------------------|-------------------------|
-------------------------|-------------------------|-------------------------|


  Q    E  E  E  E  E  E     Q    E  E  E  E  E  E     Q    E  E  E  E  E  E   
--4----4--4--4--4--4--4--|--4----4--4--4--4--4--4--|--5----5--5--5--5--5--5--|
--5----5--5--5--5--5--5--|--5----5--5--5--5--5--5--|--2----2--2--2--2--2--2--|
--4----4--4--4--4--4--4--|--4----4--4--4--4--4--4--|--2----2--2--2--2--2--2--|
-------------------------|-------------------------|--2----2--2--2--2--2--2--|
-------------------------|-------------------------|-------------------------|
-------------------------|-------------------------|-------------------------|


  Q    E  E  E  E  E  E     Q    E  E  E  E  E  E     Q    E  E  E  E  E  E   
--4----4--4--4--4--4--4--|--5----5--5--5--5--5--5--|--4----4--4--4--4--4--4--|
--2----2--2--2--2--2--2--|--2----2--2--2--2--2--2--|--2----2--2--2--2--2--2--|
--4----4--4--4--4--4--4--|--2----2--2--2--2--2--2--|--4----4--4--4--4--4--4--|
--2----2--2--2--2--2--2--|--2----2--2--2--2--2--2--|--2----2--2--2--2--2--2--|
-------------------------|-------------------------|-------------------------|
-------------------------|-------------------------|-------------------------|


    Q    E  E  E  E  E  E     Q    E  E  E  E  E  E     Q    E  E  E  E  E  E   
|---2----2--2--2--2--2--2--|--4----4--4--4--4--4--4--|--5----5--5--5--5--5--5--|
|---3----3--3--3--3--3--3--|--5----5--5--5--5--5--5--|--2----2--2--2--2--2--2--|
|*--2----2--2--2--2--2--2--|--4----4--4--4--4--4--4--|--2----2--2--2--2--2--2--|
|*--0----0--0--0--0--0--0--|-------------------------|--2----2--2--2--2--2--2--|
|--------------------------|-------------------------|-------------------------|
|--------------------------|-------------------------|-------------------------|


  Q    E  E  E  E  E  E   4x  W                  
--5----5--5--5--5--5--5---||--5----------------||
--2----2--2--2--2--2--2---||--2----------------||
--2----2--2--2--2--2--2--*||--2----------------||
--2----2--2--2--2--2--2--*||--2----------------||
--------------------------||-------------------||
--------------------------||-------------------||




Duration Legend
---------------
W - whole
H - half
Q - quarter
E - 8th
S - 16th
T - 32nd
X - 64th
. - note dotted
|-n-|  - n-tuplets


Tablature Legend
----------------
L - tied note
x - dead note
g - grace note
(n) - ghost note
> - accentuded note
NH - natural harmonic
AH - artificial harmonic
TH - tapped harmonic
SH - semi harmonic
PH - pitch harmonic
h - hammer on
p - pull off
b - bend
br - bendRelease
pb - preBend
pbr - preBendRelease
brb - bendReleaseBend
\n/ - tremolo bar dip
\n - tremolo bar dive
-/n - tremolo bar Release up
/n\ - tremolo bar inverted dip
/n - tremolo bar return
-\n - tremolo bar Release down
S - shift slide
s - legato slide
/ -  slide into from below or out of upwards
\ -  slide into from above or out of downwards
~ - vibrato
W - wide vibrato
tr - trill
TP - tremolo picking
T - tapping
S - slap
P - pop
< - fade in
^ - brush up
v - brush down
            
Submit corrections

comments powered by Disqus
↑ Back to top | Paul Mccartney Tabs for Dance Tonight. Lyrics for acoustic guitar and electric guitar. 1 Tablatures and chords are parodies/interpretations of the original songs. You may use it for private study, scholarship, research or language learning purposes only