>
 >
Band On The Run

Band On The Run Bass Tabs

Paul Mccartney - Band On The Run chords, tabs, tablatures, lyrics

Guitar lessons | Add/correct | Request | Top 50 tabs Artists:  A B C D E F G H I J K L M N O P Q R S T U V W X Y Z 0-9

Band On The Run Bass Tabs – Paul Mccartney

CD, Sheet music, Poster

Do you like Band On The Run? Share with your friends now
Bass TabsBass Tabs v2ChordsChords v2TabsTabs v2Tabs v3Tabs v4Ukulele
BAND ON THE RUN

INTRO

  4/4
G|---------------------------------|---------------------------------|
D|-----------------------------7---|---------------------------------|
A|---------------------------------|-5-------------------------------|
E|---------------------------------|---------------------------------|

G|-7----------67---7---7---7---7---|---------------------------------|
D|---------------------------------|-5-------------------------5-----|
A|---------------------------------|-----------------------------5---|
E|---------------------------------|---------------------------------|

G|---------------------------------|---------------------------------|
D|---------------------------------|---------------------------------|
A|---------------------------------|-5-------------------------------|
E|-3-------------------------------|---------------------------------|

G|-7-----------7---7---7---7---7---|---------------------------------|
D|---------------------------------|---------------------------------|
A|---------------------------------|---------------------------------|
E|---------------------------------|-3-------------------------------|

G|---------------------------------|---------------------------------|
D|---------------------7---7---7---|-------------------------4-------|
A|---------------------------------|-5-----------5---5---------------|
E|---------------------------------|---------------------------------|

G|---------------------------------|---------------------------------|
D|-5---------------------------7---|---------------------------------|
A|---------------------------------|-5-------------------------------|
E|---------------------------------|-------------------------2-------|

G|---------------------------------|
D|---------------------------------|
A|---------------------------------|
E|-3---------------------------5---|

VERSE

G|---------------------------------|-7----------67---7---7---7---7---|
D|---------------------------------|---------------------------------|
A|-5-------------------------------|---------------------------------|
E|---------------------------------|---------------------------------|

G|---------------------------------|---------------------------------|
D|-5-------------------------------|-----7---7---7---7---7---7---7---|
A|---------------------------------|---------------------------------|
E|---------------------------------|---------------------------------|

G|---------------------------------|-7-----------7---7---7---7---7---|
D|---------------------------------|---------------------------------|
A|-5-------------------------------|---------------------------------|
E|---------------------------------|---------------------------------|

G|---------------------------------|---------------------------------|
D|---------------------------------|---------------------------------|
A|---------------------------------|---------------------------------|
E|-3-------------------------------|-3---------------3-------5-------|

G|---------------------------------|---------------------------------|
D|---------------------------------|---------------------------------|
A|-5---------------5---------------|---------------------------------|
E|-------------------------2-------|-3---------------------------5---|

G|---------------------------------|---------------------------------|
D|---------------------------------|---------------------------------|
A|-5-------------------------------|---------------------------------|
E|-------------------------2-------|-3---------------------------5---|

G|---------------------------------|---------------------------------|
D|---------------------------------|---------------------------------|
A|-5-------------------------------|---------------------------------|
E|-------------------------2-------|-3-----------3---3---------------|

GUITAR SOLO

G|---------------------------------|---------------------------------|
D|---------------------------------|---------------------------------|
A|-0-------0---------------0---3---|-5-------5-----------------------|
E|-------------------0-3-----------|-------------------------0---3---|

G|---------------------------------|---------------------------------|
D|---------------------------------|---------------------------------|
A|-0-------0---------------0---3---|-5-------5-----------------------|
E|-------------------0-3-----------|---------------------0---0---3---|

G|---------------------------------|---------------------------------|
D|---------------------------------|---------------------------------|
A|-0-------0-------0---------------|-0---0-------------------0---3---|
E|---------------3---------0---3---|---------------------------------|

G|---------------------------------|---------------------------------|
D|---------------------------------|---------------------------------|
A|-5---5---------------------------|-0---0-------------------0---3---|
E|-------------------------0---3---|---------------------------------|

G|---------------------------------|---------------------------------|
D|---------------------------------|---------------------------------|
A|-5---5---------------5-----------|-0-------0-------0---------------|
E|-------------------------0---3---|---------------3---------0---3---|

VERSE

G|---------------------------------|---------------------------------|
D|---------------------------------|---------------------------------|
A|-0-------0-------0-------0---3---|-5-------5-----3-5---------------|
E|---------------3-----------------|-------------------------0---3---|

G|---------------------------------|---------------------------------|
D|---------------------------------|---------------------------------|
A|-0-------0-------0-------0---3---|-5-------5-----3-5---5-----------|
E|---------------3-----------------|-------------------------0---3---|

G|---------------------------------|---------------------------------|
D|---------------------------------|---------------------------------|
A|-0-------0-------0-------0---3---|-0-------0-------0-----------0---|
E|---------------3-----------------|---------------3---------0-------|

INTERLUDE

  3/4                       4/4
G|-------------------------|---------------------------------|
D|---------------------5---|---------------------------------|
A|---------3---5---7-------|-5-----------5-----------3-------|
E|-3---5-------------------|---------------------------------|

G|---------------------------------|---------------------------------|
D|-----------------------------5---|---------------------------------|
A|-----------------3---5---7-------|-5-----------5-----------3-------|
E|---------3---5-------------------|---------------------------------|

G|---------------------------------|---------------------------------|
D|---------------------------------|---------------------------------|
A|-----------------3---------------|-3-----------------------3-------|
E|---------3---5-----------3---5---|---------------------------------|




G|---------------------------------|---------------------------------|
D|---------------------------------|---------------------------------|
A|---------3---------------3-------|---------3---------------3-------|
E|---------------------------------|---------------------------------|

G|---------------------------------|
D|---------------------------------|
A|---------3---------------3-------|
E|---------------------------------|

VERSE

G|---------------------------------|---------------------------------|
D|---------------------------------|---------------------------------|
A|-3---3---------------------------|---------------------------------|
E|-----------------------------3---|-1---1-----------------------0---|

G|---------------------------------|---------------------------------|
D|---------------------------------|---------------------------------|
A|---------------------------------|-3---3---------------------------|
E|-1---1-------------------1---3---|-----------------------------3---|

G|---------------------------------|---------------------------------|
D|---------------------------------|---------------------------------|
A|-3---3---------------------------|---------------------------------|
E|-----------------------------3---|-1---1-----------------------0---|

G|---------------------------------|---------------------------------|
D|---------------------------------|-2-----------2---2-------2---2---|
A|---------------------------------|---------------------------------|
E|-1---1-----------------------0---|---------------------------------|

G|---------------------------------|---------------------------------|
D|---------------------------------|---------------------------------|
A|---------------------------------|-3---3-----------3---3-----------|
E|-3---3-----------3---3-----------|---------------------------------|

G|---------------------------------|---------------------------------|
D|---------------------------------|---------------------------------|
A|-----------------3-------2---0---|-0---0-----------0---0-----------|
E|-0---0---------------------------|-------------------------3-------|

G|---------------------------------|---------------------------------|
D|---------------------------------|---------------------------------|
A|---------------------------------|-3---3-----------3---3-----------|
E|-1---1-----------1---1-----------|-----------------------------3---|

G|---------------------------------|---------------------------------|
D|-3-----------3-----------3-------|---------------------------------|
A|---------------------------------|---------------------------------|
E|---------------------------------|---------------------------------|

CHORUS

G|---------------------------------|---------------------------------|
D|-------------------------5-------|-------------------------5---5---|
A|-3-------3-------3---------------|-3-----------3---3---------------|
E|---------------------------------|---------------------------------|

G|---------------------------------|---------------------------------|
D|-------------------------5-------|-------------------------5---5---|
A|-3-------3-------3---------------|-3-----------3---3---------------|
E|---------------------------------|---------------------------------|

G|---------------------------------|---------------------------------|
D|-------------------------5-------|-------------------------5---5---|
A|-3-------3-------3---------------|-3-----------3---3---------------|
E|---------------------------------|---------------------------------|

G|---------------------------------|---------------------------------|
D|-------------------------5-------|---------------------------------|
A|-3-------3-------3---------------|-3-----------3---3-------3-------|
E|---------------------------------|---------------------------------|

VERSE

G|---------------------------------|---------------------------------|
D|---------------------------------|---------------------------------|
A|-3---3---------------------------|---------------------------------|
E|-----------------------------3---|-1---1-----------------------0---|

G|---------------------------------|---------------------------------|
D|---------------------------------|---------------------------------|
A|---------------------------------|-3---3---------------------------|
E|-1---1-------------------1---3---|-----------------------------3---|

G|---------------------------------|---------------------------------|
D|---------------------------------|---------------------------------|
A|-3---3---------------------------|---------------------------------|
E|-----------------------------3---|-1---1-----------------------0---|

G|---------------------------------|---------------------------------|
D|---------------------------------|-2-----------2---2-------2---2---|
A|---------------------------------|---------------------------------|
E|-1---1-----------------------0---|---------------------------------|

G|---------------------------------|---------------------------------|
D|---------------------------------|---------------------------------|
A|---------------------------------|-3---3-----------3---3-----------|
E|-3---3-----------3---3-----------|---------------------------------|

G|---------------------------------|---------------------------------|
D|---------------------------------|---------------------------------|
A|-----------------3-------2---0---|-0---0-----------0---0-----------|
E|-0---0---------------------------|-------------------------3-------|

G|---------------------------------|---------------------------------|
D|---------------------------------|---------------------------------|
A|---------------------------------|-3---3-----------3---3-----------|
E|-1---1-----------1---1-----------|-----------------------------3---|

G|---------------------------------|---------------------------------|
D|-3-----------3-----------3-------|---------------------------------|
A|---------------------------------|---------------------------------|
E|---------------------------------|---------------------------------|

CHORUS

G|---------------------------------|---------------------------------|
D|-------------------------5-------|-------------------------5---5---|
A|-3-------3-------3---------------|-3-----------3---3---------------|
E|---------------------------------|---------------------------------|

G|---------------------------------|---------------------------------|
D|-------------------------5-------|-------------------------5---5---|
A|-3-------3-------3---------------|-3-----------3---3---------------|
E|---------------------------------|---------------------------------|

GUITAR SOLO

G|---------------------------------|---------------------------------|
D|-------------5-------------------|---------------------------------|
A|-7-----------------------3-------|-----------------7-----------3---|
E|---------------------------------|---------------------------------|

G|---------------------------------|---------------------------------|
D|---------7-----------------------|---------------------------------|
A|---------------------------------|---------------------------------|
E|---------------------------------|-1-----------1---1---1-------1---|

G|---------------------------------|---------------------------------|
D|---------------------------------|---------------------------------|
A|-3-------------------3-------3---|---------------------------------|
E|---------------------------------|-1-----------1-----------1-------|

G|---------------------------------|
D|---------------------------------|
A|---------------------------------|
E|---------------------------------|

CHORUS

G|---------------------------------|---------------------------------|
D|-------------------------5-------|-------------------------5---5---|
A|-3-------3-------3---------------|-3-----------3---3---------------|
E|---------------------------------|---------------------------------|

G|---------------------------------|---------------------------------|
D|-------------------------5-------|-------------------------5---5---|
A|-3-------3-------3---------------|-3-----------3---3---------------|
E|---------------------------------|---------------------------------|

G|---------------------------------|---------------------------------|
D|-------------------------5-------|-------------------------5---5---|
A|-3-------3-------3---------------|-3-----------3---3---------------|
E|---------------------------------|---------------------------------|

G|---------------------------------|---------------------------------|
D|-------------------------5-------|---------------------------------|
A|-3-------3-------3---------------|-3-----------3---3-------3-------|
E|---------------------------------|---------------------------------|

VERSE

G|---------------------------------|---------------------------------|
D|---------------------------------|---------------------------------|
A|-3---3---------------------------|---------------------------------|
E|-----------------------------3---|-1---1-----------------------0---|

G|---------------------------------|---------------------------------|
D|---------------------------------|---------------------------------|
A|---------------------------------|-3---3---------------------------|
E|-1---1-------------------1---3---|-----------------------------3---|

G|---------------------------------|---------------------------------|
D|---------------------------------|---------------------------------|
A|-3---3---------------------------|---------------------------------|
E|-----------------------------3---|-1---1-----------------------0---|

G|---------------------------------|---------------------------------|
D|---------------------------------|-2-----------2---2-------2---2---|
A|---------------------------------|---------------------------------|
E|-1---1-----------------------0---|---------------------------------|

G|---------------------------------|---------------------------------|
D|---------------------------------|---------------------------------|
A|---------------------------------|-3---3-----------3---3-----------|
E|-3---3-----------3---3-----------|---------------------------------|

G|---------------------------------|---------------------------------|
D|---------------------------------|---------------------------------|
A|-----------------3-------2---0---|-----0---0-----------0---0-------|
E|-0---0---------------------------|-----------------------------3---|

G|---------------------------------|---------------------------------|
D|-3-------------------------------|-3---3-------------------5-------|
A|---------------------------------|---------------------------------|
E|---------------------------------|---------------------------------|

G|---------------------------------|---------------------------------|
D|---------------------------------|---------------------------------|
A|-3-------------------------------|---------------------------------|
E|---------------------------------|---------------------------------|

G|---------------------------------|---------------------------------|
D|-3-----------5-----------7-------|---------------------------------|
A|---------------------------------|---------------------------------|
E|---------------------------------|---------------------------------|

CHORUS

G|---------------------------------|---------------------------------|
D|-------------------------5-------|-------------------------5---5---|
A|-3-------3-------3---------------|-3-----------3---3---------------|
E|---------------------------------|---------------------------------|

G|---------------------------------|---------------------------------|
D|-------------------------5-------|-------------------------5---5---|
A|-3-------3-------3---------------|-3-----------3---3---------------|
E|---------------------------------|---------------------------------|

G|---------------------------------|---------------------------------|
D|-------------------------5-------|-------------------------5---5---|
A|-3-------3-------3---------------|-3-----------3---3---------------|
E|---------------------------------|---------------------------------|

G|---------------------------------|-----------------------------4---|
D|-------------------------5-------|---------------------5---7-------|
A|-3-------3-------3---------------|-3-------------------------------|
E|---------------------------------|---------------------------------|

G|---------------------------------|---------------------------------|
D|-2-----------5-------------------|---------------------------------|
A|-------------------------3-------|---------------------------------|
E|---------------------------------|---------------------------------|





Comments


Popular Paul Mccartney tabs & chords
Run Devil Run 2 Bass Tabs
Coming Up Chords
Cosmically Conscious Chords
End Of The End 1 Chords
Golden Earth Girl Chords
Shes A Woman Chords
Hot As Sun Tabs
Bogey Music Ukulele
Country Dreamer Ukulele
Seems Like Old Times Ukulele


Song lyrics



↑ Back to top | Tablatures and chords are parodies/interpretations of the original songs. You may use it for private study, scholarship, research or language learning purposes only
© 2014 AZChords.com Contact us | Privacy policy | DMCA | Add/correct tabs | Request tabs | Top 50 tabs