>
 >
Band On The Run 1

Band On The Run 1 Bass Tabs

Paul Mccartney - Band On The Run 1 chords, tabs, tablatures, lyrics

Guitar lessons | Add/correct | Request | Top 50 tabs Artists:  A B C D E F G H I J K L M N O P Q R S T U V W X Y Z 0-9

Band On The Run 1 Bass Tabs – Paul Mccartney

CD, Sheet music, Poster

Do you like Band On The Run 1? Share with your friends now
Bass TabsBass Tabs v2ChordsChords v2TabsTabs v2Tabs v3Tabs v4Ukulele
BAND ON THE RUN (Take 6?)


Paul McCartney & Wings Rehearsal



  INTRO



G|---------------------------------|---------------------------------|
D|---------------------------------|---------------------------------|
A|-5-----------5---5---------------|-5-----------5---5---------------|
E|---------------------------------|-------------------------2-------|





G|---------------------------------|---------------------------------|
D|---------------------------------|-5---5-------5---5---------------|
A|---------------------------------|-------------------------0-------|
E|-3-----------3---3---------------|---------------------------------|





G|---------------------------------|---------------------------------|
D|---------------------------------|---------------------------------|
A|-5-----------5---5---------------|-5-----------5---5---------------|
E|---------------------------------|-------------------------2-------|





G|---------------------------------|---------------------------------|
D|---------------------------------|---------------------------------|
A|---------------------------------|---------------------------------|
E|-3-----------3---3---------------|-3---3-------3---3-------5-------|





G|---------------------------------|---------------------------------|
D|---------------------------------|---------------------------------|
A|-5-----------5---5---------------|---------------------------------|
E|-------------------------2-------|-3-----------3---3-------5-------|





G|---------------------------------|---------------------------------|
D|-------------------------4-------|-5-------------------------------|
A|-5-----------5---5---------------|---------------------------------|
E|---------------------------------|-------------3---3-------5-------|





  VERSE



G|---------------------------------|---------------------------------|
D|---------------------------------|---------------------------------|
A|-5-----------5---5---------------|-5-----------5---5-------5-------|
E|---------------------------------|---------------------------------|





G|---------------------------------|---------------------------------|
D|---------------------------------|---------------------------------|
A|---------------------------------|---------------------------------|
E|-3-----------3---3---------------|-3-----------3---3-------5-------|





G|---------------------------------|---------------------------------|
D|---------------------------------|-------------------------4-------|
A|-5-----------5---5---------------|-5-----------5---5---------------|
E|---------------------------------|---------------------------------|





G|---------------------------------|---------------------------------|
D|---------------------------------|---------------------------------|
A|---------------------------------|---------------------------------|
E|-3-----------3---3---------------|-3-----------3---3-------5-------|





G|---------------------------------|---------------------------------|
D|---------------------------------|---------------------------------|
A|-5-----------5---5---------------|-----------------------------0---|
E|-------------------------2-------|-3-----------3---3---------------|





G|---------------------------------|---------------------------------|
D|---------------------------------|---------------------------------|
A|-5-----------5---5---------------|---------------------------------|
E|-------------------------2-------|-3-----------3---3-------5-------|





G|---------------------------------|---------------------------------|
D|---------------------------------|---------------------------------|
A|-5-----------5---5---------------|---------------------------------|
E|-------------------------2-------|-3-----------3---3-------3-------|





  INTERLUDE



G|---------------------------------|---------------------------------|
D|---------------------------------|---------------------------------|
A|-0-------0---------------0---3---|-5-------5-----------5-----------|
E|---------------------3-----------|-------------------------0---3---|





G|---------------------------------|---------------------------------|
D|---------------------------------|-----------------------------5---|
A|-0-------0---------------0---3---|-5-------5-------5---5---7-------|
E|---------------------3-----------|---------------------------------|





G|---------------------------------|---------------------------------|
D|---------------------------------|---------------------------------|
A|-0-------0-------0---------------|-0-------0---------------0---3---|
E|-------------------------0---3---|---------------------3-----------|





G|---------------------------------|---------------------------------|
D|---------------------------------|---------------------------------|
A|-5-------5-----------5-----------|-0-------0-------0-------0---3---|
E|-------------------------0---3---|-----------------------3---------|





G|---------------------------------|---------------------------------|
D|-----------------------------5---|---------------------------------|
A|-5-------5-------5-----5-7-------|-0-------0-------0---------------|
E|---------------------------------|-------------------------0---3---|





  VERSE



G|---------------------------------|---------------------------------|
D|---------------------------------|---------------------------------|
A|-0-------0-------0-------0---3---|-5-------5-------5---------------|
E|---------------------------------|-------------------------0---3---|





G|---------------------------------|---------------------------------|
D|---------------------------------|---------------------------------|
A|-0-------0-------0-------0---3---|-5-------5-------5---------------|
E|---------------------------------|-------------------------0---3---|





G|---------------------------------|---------------------------------|
D|---------------------------------|---------------------------------|
A|-0-------0-------0---------------|-0-------0-------0-------0-------|
E|-------------------------0---3---|-----------------------3---------|





  INTERLUDE



G|-------------------------|---------------------------------|
D|---------------------5---|---------------------------------|
A|---------3---5---7-------|-5-----------5-----------3-------|
E|-3---5-------------------|---------------------------------|





G|---------------------------------|---------------------------------|
D|-----------------------------5---|---------------------------------|
A|-----------------3---5---7-------|-5-----------5-----------3-------|
E|---------3---5-------------------|---------------------------------|





G|---------------------------------|
D|---------------------------------|
A|-----------------3---------------|
E|---------3---5-----------3---5---|





G|---------------------------------|-10------10--10------10--10------|
D|---------------------------------|---------------------------------|
A|-3-------------------------------|---------------------------------|
E|---------------------------------|---------------------------------|





G|---------------------------------|-10------10--10------10--10-\----|
D|---------------------------------|---------------------------------|
A|-3-------3---3-----------3-------|---------------------------------|
E|---------------------------------|---------------------------------|





  VERSE



G|---------------------------------|---------------------------------|
D|---------------------------------|---------------------------------|
A|-3-----------3---3---------------|---------------------------------|
E|---------------------------------|-1-----------1---1---------------|





G|---------------------------------|---------------------------------|
D|---------------------------------|---------------------------------|
A|---------------------------------|-3-----------3---3---------------|
E|-1-----------1---1---------------|---------------------------------|





G|---------------------------------|---------------------------------|
D|---------------------------------|---------------------------------|
A|-3-----------3---3---------------|---------------------------------|
E|---------------------------------|-1-----------1---1-----------1---|





G|---------------------------------|---------------------------------|
D|---------------------------------|---------------------------------|
A|---------------------------------|-7-----------7---7---7---7---7---|
E|-1---------------1---------------|---------------------------------|





  PRE-CHORUS



G|---------------------------------|---------------------------------|
D|---------------------------------|---------------------------------|
A|---------------------------------|-3-----------3---3---------------|
E|-3-----------3---3---------------|---------------------------------|





G|-9---9-------9-------------------|---------------------------------|
D|-----------------10----------9---|---------------------------------|
A|---------------------------------|-0-----------0---0---0-----------|
E|---------------------------------|---------------------------------|





G|---------------------------------|---------------------------------|
D|---------------------------------|---------------------------------|
A|---------------------------------|-3-----------3---3---------------|
E|-1---------------1---1-----------|---------------------------------|





G|---------------------------------|---------------------------------|
D|---------------------------------|---------------------------------|
A|---------------------------------|---------------------------------|
E|-1-----------1-----------1-------|---------------------------------|





  CHORUS



G|---------------------------------|---------------------------------|
D|---------------------------------|---------------------------------|
A|-3-------------------------------|-3-----------3-------------------|
E|-----------------3-----------3---|-----------------3-------3-------|





G|---------------------------------|---------------------------------|
D|---------------------------------|---------------------------------|
A|-3-------------------------------|-3-----------3-------------------|
E|-----------------3---3-----------|-----------------3---------------|





G|---------------------------------|---------------------------------|
D|---------------------------------|---------------------------------|
A|-3-------------------------------|-3-----------3-------------------|
E|-----------------3---------------|-----------------3---------------|





G|---------------------------------|---------------------------------|
D|---------------------------------|---------------------------------|
A|-3-------------------------------|-3-----------3-------------------|
E|-----------------3---------------|-----------------3---------------|





  VERSE



G|---------------------------------|---------------------------------|
D|---------------------------------|---------------------------------|
A|-3-----------3---3---------------|---------------------------------|
E|---------------------------------|-1-----------1---1---------------|





G|---------------------------------|---------------------------------|
D|---------------------------------|---------------------------------|
A|---------------------------------|-3-----------3---3---------------|
E|-1---------------1---1-----------|---------------------------------|





G|---------------------------------|---------------------------------|
D|---------------------------------|---------------------------------|
A|-3-----------3---3---------------|---------------------------------|
E|---------------------------------|-1---------------1---1-------1---|





G|---------------------------------|---------------------------------|
D|---------------------------------|---------------------------------|
A|---------------------------------|-7---7---7---7---7---7---7---7---|
E|-1---------------1---------------|---------------------------------|





  PRE-CHORUS



G|---------------------------------|---------------------------------|
D|-5-----------5---5---------------|---------------------------------|
A|---------------------------------|-3-----------3---3---------------|
E|---------------------------------|---------------------------------|





G|-9-----------9-------------------|---------------------------------|
D|-----------------10----------9---|---------------------------------|
A|---------------------------------|-0-----------0---0---------------|
E|---------------------------------|---------------------------------|





G|---------------------------------|---------------------------------|
D|---------------------------------|---------------------------------|
A|---------------------------------|-3-----------3---3---------------|
E|-1-----------1---1---1-----------|---------------------------------|





G|---------------------------------|---------------------------------|
D|---------------------------------|---------------------------------|
A|---------------------------------|---------------------------------|
E|-1-----------1-----------1-------|---------------------------------|





  CHORUS



G|---------------------------------|---------------------------------|
D|---------------------------------|---------------------------------|
A|-3-----------3-------------------|-3-------------------------------|
E|-----------------3---------------|-----------------3---------------|





G|---------------------------------|---------------------------------|
D|---------------------------------|-----------------5---------------|
A|-3-------------------------------|-3-----------3-------------------|
E|-----------------3---------------|---------------------------------|





  GUITAR SOLO



G|-------------------------------------------------|
D|-------------5-----------------------------------|
A|-7-----------------------3-----------------------|
E|-------------------------------------------------|





G|-------------------------------------------------|
D|-2-----------------------------------------------|
A|-------------3-----------------------------------|
E|-------------------------5-----------------------|





G|---------------------------------|---------------------------------|
D|---------------------------------|---------------------------------|
A|---------------------------------|-3-----------3---3---------------|
E|-1-------1-------1-------1-------|---------------------------------|





G|---------------------------------|---------------------------------|
D|---------------------------------|---------------------------------|
A|---------------------------------|---------------------------------|
E|-1-----------1-----------1-------|---------------------------------|





  CHORUS



G|---------------------------------|---------------------------------|
D|---------------------------------|---------------------------------|
A|-3-------------------------------|-3-------------------------------|
E|-----------------3---------------|-----------------3---------------|





G|---------------------------------|---------------------------------|
D|---------------------------------|---------------------------------|
A|-3-----------3-------------------|-3-------------------------------|
E|-----------------3---------------|-----------------3-------3-------|





G|---------------------------------|---------------------------------|
D|---------------------------------|---------------------------------|
A|-3-----------3-------------------|-3-------------------------------|
E|-----------------3---------------|-----------------3---------------|





G|---------------------------------|---------------------------------|
D|---------------------------------|---------------------------------|
A|-3-------------------------------|-3-------------------------------|
E|-----------------3---------------|-----------------3---------------|





  VERSE



G|---------------------------------|---------------------------------|
D|---------------------------------|---------------------------------|
A|-3-----------3---3---------------|---------------------------------|
E|---------------------------------|-1---------------1---------------|





G|---------------------------------|---------------------------------|
D|---------------------------------|---------------------------------|
A|---------------------------------|-3-----------3---3---------------|
E|-1---------------1---1-----------|---------------------------------|





G|---------------------------------|---------------------------------|
D|---------------------------------|---------------------------------|
A|-3-----------3---3---------------|---------------------------------|
E|---------------------------------|-1-----------1---1---------------|





G|---------------------------------|---------------------------------|
D|---------------------------------|---------------------------------|
A|---------------------------------|-7-------7-------7---7---7---7---|
E|-1---------------1-------1-------|---------------------------------|





  PRE-CHORUS



G|---------------------------------|---------------------------------|
D|---------------------------------|---------------------------------|
A|---------------------------------|-3-----------3---3---------------|
E|-3-----------3---3---------------|---------------------------------|





G|-9-----------9-------------------|---------------------------------|
D|-----------------10----------9---|---------------------------------|
A|---------------------------------|-0---------------0---0-----------|
E|---------------------------------|---------------------------------|





G|---------------------------------|---------------------------------|
D|---------------------------------|---------------------------------|
A|---------------------------------|---------------------------------|
E|-1-------------------------------|---------------------------------|





G|---------------------------------|---------------------------------|
D|---------------------------------|---------------------------------|
A|-3-------------------------------|---------------------------------|
E|---------------------------------|---------------------------------|





G|---------------------------------|---------------------------------|
D|---------------------------------|---------------------------------|
A|---------------------------------|---------------------------------|
E|-1-----------3-----------5-------|---------------------------------|





  CHORUS



G|---------------------------------|---------------------------------|
D|---------------------------------|---------------------------------|
A|-3-------------------------------|-3-----------3-------------------|
E|-----------------3---------------|-----------------3-------3-------|





G|---------------------------------|---------------------------------|
D|---------------------------------|---------------------------------|
A|-3-----------3-------------------|-3-------------------------------|
E|-----------------3-----------3---|-----------------3-------3-------|





G|---------------------------------|---------------------------------|
D|---------------------------------|---------------------------------|
A|-3-------------------------------|-3-----------3-------------------|
E|-----------------3-----------3---|-----------------3---------------|





G|---------------------------------|---------------------------------|
D|---------------------------------|---------------------------------|
A|-3-----------3-------------------|-3-----------3-------------------|
E|-----------------3---------------|-----------------3-------3-------|





G|---------------------------------|---------------------------------|
D|---------------------------------|---------------------------------|
A|-------------------------3-------|---------------------------------|
E|-0-----------3-------------------|---------------------------------|





Comments


Popular Paul Mccartney tabs & chords
Cosmically Conscious Chords
Eleanor Rigby Chords
I Am Your Singer Chords
Jenny Wren 1 Chords
Promise To You Girl 1 Chords
Love In Song Tabs
Step Inside Love Tabs
Distractions Ukulele
Name And Addres Ukulele
The Song We Were Singing Ukulele


Song lyrics



↑ Back to top | Tablatures and chords are parodies/interpretations of the original songs. You may use it for private study, scholarship, research or language learning purposes only
© 2014 AZChords.com Contact us | Privacy policy | DMCA | Add/correct tabs | Request tabs | Top 50 tabs