» » »

All Shook Up Tabs (ver.1)

Artists:  A B C D E F G H I J K L M N O P Q R S T U V W X Y Z # 

All Shook Up Tabs (ver.1)

Paul Mccartney
Rating:
3/5 (1 vote)

Hard to play? Try these video lessons and learn fast.
                    ----------------------------------------------------------

    PAUL McCARTNEY - ALL SHOOK UP (Blackwell/Presley) From RUN
                     DEVIL RUN album. Released on October 5th, 
                     1999.
      
    ----------------------------------------------------------






    A well, bless my soul
    What's wrong with me?
    I'm itching like a man on a fuzzy tree
    My friends say I'm actin' wild as a bug
    I'm in love
    I'm all shook up
    Mmm mmm mmm mmm ... yeah, yeah, yeah!

    Oh, well, my hands are shaky and my knees are weak
    I can't seem to stand on my own two feet
    Who do you thank when you have such luck?
    I'm in love
    I'm all shook up
    Mmm mmm mmm mmm ... yeah, yeah, yeah!

    Well, uh, please don't ask me what's on my mind
    I'm a little mixed up, but I'm feelin' fine
    When I'm near that girl that I love best
    My heart beats so it scares me to death!

    She touched my hand what a chill I got
    Her lips are like a volcano that's hot
    I'm proud to say she's my buttercup
    I'm in love
    I'm all shook up
    Mmm mmm mmm mmm ... yeah, yeah, yeah!
    Mmm mmm mmm mmm ... yeah, yeah, yeah!
    Mmm mmm mmm mmm ... Baby now, I'm all shook up.  




     GUITAR INTRO


  e|------- ------- ------- -------|------- ------- ------- -------|
  B|-------------------------------|-------------------------------|
  G|-------------------------------|-------------------------------|
  D|-------------------------------|-------------------------------|
  A|-------------------------------|------------------------5---7--|
  E|-------------------------------|--------------------7----------|


                                                        x   x   x

  e|------- ------- ------- -------|------- ------- ------- -------|
  B|-------------------------------|-------------------------------|
  G|-------------------------------|-------------------------------|
  D|5B6----------------------------|-------------------------------|
  A|--------7---5---7---7---5------|7---7---5---7-----------5---7--|
  E|----------------------------7--|--------------------7----------|


    x
                                                            Well, 
  e|------- ------- ------- -------|------- ------- ------- -------|
  B|-------------------------------|-------------------------------|
  G|-------------------------------|-------------------------------|
  D|5B6----------------------------|-------------------------------|
  A|--------7---5---7---7-P-5------|7---7---5---7-----------5---7--|
  E|----------------------------7--|7-----------7-------7----------|


    00:06


  e|------- ------- ------- -------|------- ------- ------- -------|
  B|-------------------------------|-------------------------------|
  G|-------------------------------|-------------------------------|
  D|2-------2---2---2-------2---2--|2---2-------2-------2-------2--|
  A|2-------2---2---2-------2---2--|2---2-------2-------2-------2--|
  E|0-------0---0---0-------0---0--|0---0-------0-------0-------0--|
     bless   my      soul    What's  wrong   with                I'm 
                                                 me?
  e|------- ------- ------- -------|------- ------- ------- -------|
  B|-------------------------------|-------------------------------|
  G|-------------------------------|-------------------------------|
  D|5B6----------------------------|-------------------------------|
  A|--------7---5---7---7-P-5------|7---7---5---7-----------5---7--|
  E|----------------------------7--|--------------------7----------|





  e|------- ------- ------- -------|------- ------- ------- -------|
  B|-------------------------------|-------------------------------|
  G|-------------------------------|-------------------------------|
  D|2-------2-------2---2---2------|2-------2---2-------2-------2--|
  A|2-------2-------2---2---2------|2-------2---2-------2-------2--|
  E|0-------0-------0---0---0------|0-------0---0-------0-------0--|
     itching like    man     on  a   fuzzy       tree            My
                 a
  e|------- ------- ------- -------|------- ------- ------- -------|
  B|-------------------------------|-------------------------------|
  G|-------------------------------|-------------------------------|
  D|5B6----------------------------|--------7---7------------------|
  A|--------7---5---7---7-P-5------|7-------7---7-----------5---7--|
  E|----------------------------7--|--------------------7----------|




  e|------- ------- ------- -------|------- ------- ------- -------|
  B|-------------------------------|-------------------------------|
  G|-------------------------------|-------------------------------|
  D|2-------2-------2---2---2------|2---2---2---2-------2---2---2--|
  A|2-------2-------2---2---2------|2---2---2---2-------2---2---2--|
  E|0-------0-------0---0---0------|0---0---0---0-------0---0---0--|
     friends say I'm actin'          wild    a   bug     I'm in
                                         as
  e|------- ------- ------- -------|------- ------- ------- -------|
  B|-------------------------------|-------------------------------|
  G|-------------------------------|-------------------------------|
  D|5B6----------------------------|--------5---------------0------|
  A|--------7---5---7---7-P-5------|7---7-------7-------2-------2--|
  E|----------------------------7--|-------------------------------|




  e|------- ------- ------- -------|------- ------- ------- -------|
  B|-------------------------------|-------------------------------|
  G|-------------------------------|-------------------------------|
  D|2------------------------------|-------------------------------|
  A|2(cut)-------------------------|-------------------------------|
  E|0------------------------------|-------------------------------|
     love                        I'm all     shook      Mmm mmm mmm 
                                                 up
  e|------- ------- ------- -------|------- ------- ------- -------|
  B|-------------------------------|-------------------------------|
  G|-------------------------------|-------------------------------|
  D|2---------------2--------------|-------------------------------|
  A|2---------------2(cut)---------|-------------------------------|
  E|0---------------0--------------|-------------------------------|




  e|------- ------- ------- -------|------- ------- ------- -------|
  B|-------------------------------|-------------------------------|
  G|-------------------------------|-------------------------------|
  D|-------------------------------|-------------------------------|
  A|7-------9-------7---7-------7-/|9------11-------9---9---9------|
  E|5-------5-------5---5-------5-/|7-------7-------7---7---7------|
                                mmm mmm mmm                     Yeah
  e|5------ 5---5-- 5---5-- ----5-/|7------ 7------ 7---7-- -------|
  B|5-------5---5---5---5-------5-/|7-------7-------7---7----------|
  G|6-------6---6---6---6-------6-/|8-------8-------8---8----------|
  D|7-------7---7---7---7-------7-/|9-------9-------9---9----------|
  A|7-------7---7---7---7-------7-/|9-------9-------9---9----------|
  E|5-------5---5---5---5-------5-/|7-------7-------7---7----------| 




  e|------- ------- ------- -------|------- ------- ------- -------|
  B|-------------------------------|-------------------------------|
  G|-------------------------------|-------------------------------|
  D|-------------------------------|-------------------------------|
  A|2---2---4-------2---2---4---2--|----2---4---2-------2---2---2--|
  E|0---0---0-------0---0---0---0--|----0---0---0-------0---0---0--|
                yeah            yeah                    Oh  well
                                                                my
  e|--12---12------12--12--12--12--12--12--12--12-- ------- -------|
  B|---9-H-10-------9---9--10-P-9--10-P-9--10---9------------------|
  G|---9----9-------9---9---9---9--|9---9---9---9------------------|
  D|---9-H-11-------9---9--11-P-9--11-P-9--11---9------------------|
  A|-------------------------------|------------------------5---7--|
  E|-------------------------------|--------------------7----------| 

  e|----0-- 0------ 0---0-- 0---0--|----0-- ------- 0------ -------|
  B|----0---2-------0---0---2---0--|----0-----------0--------------|
  G|----1---2-------1---1---2---1--|----1-----------1--------------|
  D|----2---2-------2---2---2---2--|----2-----------2--------------|
  A|----2---0-------2---2---0---2--|----2-----------2--------------|
  E|----0-----------0---0-------0--|----0-----------0--------------| 



     00:23

  e|------- ------- ------- -------|------- ------- ------- -------|  
  B|-------------------------------|-------------------------------|
  G|-------------------------------|-------------------------------|
  D|-------------------------------|-------------------------------|
  A|2---2---4-------2---2---4---2--|2---2---4-------2---2---4---2--|
  E|0---0---0-------0---0---0---0--|0---0---0-------0---0---0---0--|
     hands   are shaky       and my  knees   are weak            I
  e|------- ------- ------- -------|------- ------- ------- -------|
  B|-------------------------------|-------------------------------|
  G|-------------------------------|-------------------------------|
  D|5B6----------------------------|-------------------------------|
  A|--------7---5---7---7-P-5------|7---7-P-5---7-----------5---7--|
  E|----------------------------7--|--------------------7----------|




  e|------- ------- ------- -------|------- ------- ------- -------|  
  B|-------------------------------|-------------------------------|
  G|-------------------------------|-------------------------------|
  D|-------------------------------|-------------------------------|
  A|2---2---4-------2---2---4---2--|2---2---4-------2---2---4---2--|
  E|0---0---0-------0---0---0---0--|0---0---0-------0---0---0---0--|
     can't  seem to  stand   on  my  own     two     feet        Who
  e|------- ------- ------- -------|------- ------- ------- -------|
  B|-------------------------------|-------------------------------|
  G|-------------------------------|-------------------------------|
  D|5B6----------------------------|-------------------------------|
  A|--------7---5---7---7-P-5------|7---7-P-5---7-----------5---7--|
  E|----------------------------7--|--------------------7----------|




  e|------- ------- ------- -------|------- ------- ------- -------|  
  B|-------------------------------|-------------------------------|
  G|-------------------------------|-------------------------------|
  D|-------------------------------|-------------------------------|
  A|2---2---4-------2---2---4---2--|2---2---4-------2---2---4---2--|
  E|0---0---0-------0---0---0---0--|0---0---0-------0---0---0---0--|
         do      you thank   when    have    such    luck?   in
                                 you                     I'm
  e|------- ------- ------- -------|------- ------- ------- -------|
  B|-------------------------------|-------------------------------|
  G|-------------------------------|-------------------------------|
  D|5B6----------------------------|-------------------------------|
  A|--------7---5---7---7-P-5------|7---7-P-5---7-----------5---7--|
  E|----------------------------7--|--------------------7----------|




  e|------- ------- ------- -------|------- ------- ------- -------|
  B|-------------------------------|-------------------------------|
  G|-------------------------------|-------------------------------|
  D|----------------2--------------|-------------------------------|
  A|7---------------2--------------|-------------------------------|
  E|0---------------0--------------|-------------------------------|
     love                        I'm all     shook      Mmm mmm mmm 
                                                 up
  e|------- ------- ------- -------|------- ------- ------- -------|
  B|-------------------------------|-------------------------------|
  G|-------------------------------|-------------------------------|
  D|----------------2--------------|-------------------------------|
  A|7---------------2--------------|-------------------------------|
  E|0---------------0--------------|-------------------------------|




  e|------- ------- ------- -------|------- ------- ------- -------|   
  B|-------------------------------|-------------------------------|
  G|-------------------------------|-------------------------------|
  D|-------------------------------|-------------------------------|
  A|7---7---9-P-7---7---7---9---7-/|9---9--11-P-9---9---9----------|
  E|5---5---5-------5---5---5---5-/|7---7---7-------7---7----------|
                                mmm mmm mmm                     Yeah
  e|5------ 5---5-- 5---5-- -------|7------ 7------ 7---7-- -------|
  B|5-------5---5---5---5----------|7-------7-------7---7----------|
  G|6-------6---6---6---6----------|8-------8-------8---8----------|
  D|7-------7---7---7---7----------|9-------9-------9---9----------|
  A|7-------9---7---7---7----------|9-------9-------9---9----------|
  E|5-------5---5---5---5----------|7-------7-------7---7----------| 




  e|------- ------- ------- -------|------- ------- ------- -------|
  B|-------------------------------|-------------------------------|
  G|-------------------------------|-------------------------------|
  D|2-------2-------2---2---2------|2-------2-------2------2-------|
  A|2-------2-------2---2---2------|2-------2-------2------2-------|
  E|0-------0-------0---0---0------|0-------2-------3------4-------|
                yeah            yeah                    Well, 
                                                            uh,
  e|--12---12------12--12--12--12--12--12--12--12-- ------- -------|
  B|---9-H-10-------9---9--10---9--10-P-9--10---9------------------|
  G|---9----9-------9---9---9---9--|9---9---9---9------------------|
  D|---9-H-11-------9---9--11---9--11-P-9--11---9------------------|
  A|-------------------------------|-------------------------------|
  E|-------------------------------|-------------------------------| 



     00:39

  e|------- ------- ------- -------|------- ------- ------- -------|
  B|-------------------------------|-------------------------------|
  G|-------------------------------|-------------------------------|
  D|-------------------------------|-------------------------------|
  A|7---7---9-------7---7---9-P-7--|7---7---9-P-7---7---7---9------|
  E|5---5---5-------5---5---5------|5---5---5-------5---5---5------|
    please  don't   ask     me  what's  on      my  mind        I'm        
                                                                   a
  e|5---5-- 5------ 5---5-- 5---5--|5---5-- 5---5-- ----5-- 5------|
  B|5---5---5-------5---5---5---5--|5---5---5---5-------5---5------|
  G|6---6---6-------6---6---6---6--|6---6---6---6-------6---6------|
  D|7---7---7-------7---7---7---7--|7---7---7---7-------7---7------|
  A|7---7---7-------7---7---7---7--|7---7---7---7-------7---7------|
  E|5---5---5-------5---5---5---5--|5---5---5---5-------5---5------| 




  e|------- ------- ------- -------|------- ------- ------- -------|  
  B|-------------------------------|-------------------------------|
  G|-------------------------------|-------------------------------|
  D|-------------------------------|-------------------------------|
  A|2---2---4-------2---2---4---2--|2---2---4-------2---2---4------|
  E|0---0---0-------0---0---0---0--|0---0---0-------0---0---0------|
    little  mixed   up,     but I'm feelin'     fine            When
  e|0---0-- 0------ 0---0-- 0---0--|0---0-- 0------ 0---0-- 0---0-/|
  B|0---0---0-------0---0---0---0--|0---0---0-------0---0---0---0-/|
  G|1---1---1-------1---1---1---1--|1---1---1-------1---1---1---1-/|
  D|2---2---2-------2---2---2---2--|2---2---2-------2---2---2---2-/|  
  A|2---2---2-------2---2---2---2--|2---2---2-------2---2---2---2-/|
  E|0---0---0-------0---0---0---0--|0---0---0-------0---0---0---0-/| 




  e|------- ------- ------- -------|------- ------- ------- -------|
  B|-------------------------------|-------------------------------|
  G|-------------------------------|-------------------------------|
  D|-------------------------------|-------------------------------|
  A|7---7---9-P-7---7---7---9------|7-------9-P-7---7-------9---7-/|
  E|5---5---5-------5---5---5------|5-------5-------5-------5---5-/|
    I'm near    girl            that    love    best            my
            that                    I
  e|5------ 5---5-- 5---5-- 5---5--|5---5-- 5---5-- 5---5-- 5------|
  B|5-------5---5---5---5---5---5--|5---5---5---5---5---5---5------|
  G|6-------6---6---6---6---6---6--|6---6---6---6---6---6---6------|
  D|7-------7---7---7---7---7---7--|7---7---7---7---7---7---7------|
  A|7-------7---7---7---7---7---7--|7---7---7---7---7---7---7------|
  E|5-------5---5---5---5---5---5--|5---5---5---5---5---5---5------|  




  e|------- ------- ------- -------|------- ------- ------- -------|
  B|-------------------------------|-------------------------------|
  G|-------------------------------|-------------------------------|
  D|-------------------------------|-------------------------------|
  A|9---9---9-------9---9--11-P-9--|9---9--11-P-9---9---9--11------|
  E|7---7---7-------7---7---7------|7---7---7-------7---7---7------|
    heart   beats   so  it      scares      me  to  death!  She 
                                                             touched
  e|7---7-- 7---7-- ------- 7---7--|7---7-- ------- ------- -------|
  B|7---7---7---7-----------7---7--|7---7--------------------------|
  G|8---8---8---8-----------8---8--|8---8--------------------------|
  D|9---9---9---9-----------9---9--|9---9--------------------------|
  A|9---9---9---9-----------9---9--|9---9-------------------5---7--|
  E|7---7---7---7-----------7---7--|7---7---------------7----------|



     00:50

  e|------- ------- ------- -------|------- ------- ------- -------|
  B|-------------------------------|-------------------------------|
  G|-------------------------------|-------------------------------|
  D|2-------2-------2---2---2------|2-------2---2-------2---2------|
  A|2-------2-------2---2---2------|2-------2---2-------2---2------|
  E|0-------0-------0---0---0------|0-------0---0-------0---0------|
            my      hand    what    chill       got             Her
                                a       I
  e|------- ------- ------- -------|------- ------- ------- -------|
  B|-------------------------------|-------------------------------|
  G|-------------------------------|-------------------------------|
  D|5B6----------------------------|-------------------------------|
  A|--------7---5---7---7-P-5------|7---7-P-5---7-----------5---7--|
  E|----------------------------7--|--------------------7----------|




  e|------- ------- ------- -------|------- ------- ------- -------|
  B|-------------------------------|-------------------------------|
  G|-------------------------------|-------------------------------|
  D|2-------2-------2---2---2------|2-------2---2-----------2------|
  A|2-------2-------2---2---2------|2-------2---2-----------2------|
  E|0-------0-------0---0---0------|0-------0---0-----------0------|
    lips    are like    a   volcano         that's              I'm
                                                hot
  e|------- ------- ------- -------|------- ------- ------- -------|
  B|-------------------------------|-------------------------------|
  G|-------------------------------|-------------------------------|
  D|5B6----------------------------|-------------------------------|
  A|--------7---5---7---7-P-5------|7---7-P-5---7-----------5---7--|
  E|----------------------------7--|--------------------7----------|




  e|------- ------- ------- -------|------- ------- ------- -------|
  B|-------------------------------|-------------------------------|
  G|-------------------------------|-------------------------------|
  D|2-------2-------2---2---2------|2-------2---2-------2---2------|
  A|2-------2-------2---2---2------|2-------2---2-------2---2------|
  E|0-------0-------0---0---0------|0-------0---0-------0---0------|
        proud   to  say     she's   buttercup           I'm in
                        that    my 
  e|------- ------- ------- -------|------- ------- ------- -------|
  B|-------------------------------|-------------------------------|
  G|-------------------------------|-------------------------------|
  D|5B6----------------------------|-------------------------------|
  A|--------7---5---7---7-P-5------|7---7-P-5---7-----------5---7--|
  E|----------------------------7--|--------------------7----------|




  e|------- ------- ------- -------|------- ------- ------- -------|
  B|-------------------------------|-------------------------------|
  G|-------------------------------|-------------------------------|
  D|2---------------2--------------|-------------------------------|
  A|2---------------2--------------|-------------------------------|
  E|0---------------0--------------|-------------------------------|
    love                        I'm all     shook       Mmm mmm mmm 
                                                up
  e|------- ------- ------- -------|------- ------- ------- -------|
  B|-------------------------------|-------------------------------|
  G|-------------------------------|-------------------------------|
  D|----------------2--------------|-------------------------------|
  A|7---------------2--------------|-------------------------------|
  E|0---------------0--------------|-------------------------------|




  e|------- ------- ------- -------|------- ------- ------- -------|   
  B|-------------------------------|-------------------------------|
  G|-------------------------------|-------------------------------|
  D|-------------------------------|-------------------------------|
  A|7---7---9-------7---7---9---7--|9---9--11-------9---9--11------|
  E|5---5---5-------5---5---5---5--|7---7---7-------7---7---7------|
                                mmm mmm mmm                     Yeah
  e|5------ 5---5-- 5---5-- -------|7------ 7------ 7---7-- 7------|
  B|5-------5---5---5---5----------|7-------7-------7---7---7------|
  G|6-------6---6---6---6----------|8-------8-------8---8---8------|
  D|7-------7---7---7---7----------|9-------9-------9---9---9------|
  A|7-------9---7---7---7----------|9-------9-------9---9---9------|
  E|5-------5---5---5---5----------|7-------7-------7---7---7------|




  e|------- ------- ------- -------|------- ------- ------- -------|
  B|-------------------------------|-------------------------------|
  G|-------------------------------|-------------------------------|
  D|-------------------------------|-------------------------------|
  A|2---2---4-------2---2---4-P-2--|2-------4-P-2-----------5---7--|
  E|0---0---0-------0---0---0------|0-------0-----------7----------|
            yeah                Yeah! 
  e|0------ 0------ 0---0-- 0------|0------ 0------ ------- -------|
  B|0-------0-------0---0---0------|0-------0----------------------|
  G|1-------1-------1---1---1------|1-------1---------------7---9--|
  D|2-------2-------2---2---2------|2-------2-----------9----------|
  A|2-------2-------2---2---2------|2-------2----------------------|
  E|0-------0-------0---0---0------|0-------0----------------------|
                                                        ...........

     SOLO
     01:07

  e|------- ------- ------- -------|------- ------- ------- -------|
  B|-------------------------------|-------------------------------|
  G|-------------------------------|-------------------------------|
  D|5B6----------------------------|-------------------------------|
  A|--------7---5---7---7---5------|7---7---5---7-----------5---7--|
  E|----------------------------7--|--------------------7----------|

  e|------- ------- ------- -------|------- ------- ------- -------|
  B|8B9----------------------------|-------------------------------|
  G|--------9---7---9---9---7------|9---9---7---9-----------7---9--|
  D|----------------------------9--|-------------------------------|
  A|-------------------------------|--------------------9----------|
  E|-------------------------------|-------------------------------|
    ...........................  5 times ..........................



  e|------- ------- ------- -------|------- ------- ------- -------|
  B|-------------------------------|-------------------------------|
  G|-------------------------------|-------------------------------|
  D|5B6----------------------------|-------------------------------|
  A|--------7---5---7---7---5------|7---7---5---7-------7-\--------|
  E|----------------------------7--|-------------------------------|
                                                        Well,
                                                            uh,
  e|------- ------- ------- -------|------- ------- ------- -------|
  B|8B9----------------------------|-------------------------------|
  G|--------9---7---9---9---7------|9---9---7---9------------------|
  D|----------------------------9--|----------------------------7--|
  A|-------------------------------|----------------------------7--|
  E|-------------------------------|--------------------8B9-----5--|



    01:24

  e|------- ------- 9------ ----9--|----9-- ----9-- 9------ -------|   
  B|---------------10----------10--|---10------10--10--------------|
  G|----------------9-----------9--|----9-------9---9--------------|
  D|-------------------------------|-------------------------------|
  A|-------------------------------|-------------------------------|
  E|-------------------------------|-------------------------------|
    please  don't   ask     me  what's  on      my  mind        I'm        
                                                                  a
  e|5------ 5------ 5---5-- 5------|5------ 5------ 5---5-- -------|    
  B|5-------5-------5---5---5------|5-------5-------5---5----------|
  G|6-------6-------6---6---6------|6-------6-------6---6----------|
  D|7-------7-------7---7---7------|7-------7-------7---7----------|
  A|7-------7-------7---7---7------|7-------7-------7---7----------|
  E|5-------5-------5---5---5------|5-------5-------5---5----------|





  e|----7-- ----7-- 7------ 7------|----7-- ------- 7------ 7---x--|
  B|----9-------9---9-------9------|----9-----------9-------9---x--|
  G|----9-------9---9-------9------|----9-----------9-------9---x--|
  D|-------------------------------|-------------------------------|
  A|-------------------------------|-------------------------------|
  E|-------------------------------|-------------------------------|
    little  mixed   up,     but I'm feelin'     fine            When
  e|0---0-- 0------ ----0-- 0---0--|0------ 0---0-- 0---0-- 0------|
  B|0---0---0-----------0---0---0--|0-------0---0---0---0---0------|
  G|1---1---1-----------1---1---1--|1-------1---1---1---1---1------|
  D|2---2---2-----------2---2---2--|2-------2---2---2---2---2------|  
  A|2---2---2-----------2---2---2--|2-------2---2---2---2---2------|
  E|0---0---0-----------0---0---0--|0-------0---0---0---0---0------|




  e|----9-- ------- 9------ x------|9---9-- ------- 9---9-- 9---/--|   
  B|---10----------10-------x------10--10----------10--10--10---/--|
  G|----9-----------9-------x------|9---9-----------9---9---9---/--|
  D|-------------------------------|-------------------------------|
  A|-------------------------------|-------------------------------|
  E|-------------------------------|-------------------------------|
    I'm near    girl            that    love    best            my
            that                    I
  e|5------ 5------ ----5-- 5------|5------ 5---5-- 5---5-- 5------|
  B|5-------5-----------5---5------|5-------5---5---5---5---5------|
  G|6-------6-----------6---6------|6-------6---6---6---6---6------|
  D|7-------7-----------7---7------|7-------7---7---7---7---7------|
  A|7-------7-----------7---7------|7-------7---7---7---7---7------|
  E|5-------5-----------5---5------|5-------5---5---5---5---5------|




  e|11--11- 11--11- 11--11- 11--11-|11----- 11----- 11--11- 11-----|
  B|12--12--12--12--12--12--12--12-|12------12------12--12--12-----|
  G|11--11--11--11--11--11--11--11-|11------11------11--11--11-----|
  D|-------------------------------|-------------------------------|
  A|-------------------------------|-------------------------------|
  E|-------------------------------|-------------------------------|
    heart   beats   so  it      scares      me  to  death!  She 
                                                             touched
  e|7------ 7---7-- ----7-- 7---7--|----7-- 7---7-- 7---7-- 7---7--|
  B|7-------7---7-------7---7---7--|----7---7---7---7---7---7---7--|
  G|8-------8---8-------8---8---8--|----8---8---8---8---8---8---8--|
  D|9-------9---9-------9---9---9--|----9---9---9---9---9---9---9--|
  A|9-------9---9-------9---9---9--|----9---9---9---9---9---9---9--|
  E|7-------7---7-------7---7---7--|----7---7---7---7---7---7---7--|



    01:35

       my hand what a chill I got
    Her lips are like a volcano that's hot
    I'm proud to say she's my buttercup
    I'm in love
    I'm all shook up
    Mmm mmm mmm mmm ... yeah, yeah, yeah!
    Mmm mmm mmm mmm ... yeah, yeah!
    Mmm mmm mmm mmm ... Baby now, I'm all shook up.  






        B  Bend
        R  Release
        /  slide up
        \  slide down
        H  hammer-on
        P  pull-off
        ~  vibrato
        +  harmonic
        x  Mute note
        . - play note like a dot in standard notation
        ^ - ties two notes together
        (.  Pause



                    
            
Hard to play? Try these video lessons and learn fast. | Correct




comments powered by Disqus
↑ Back to top | Tablatures and chords are parodies/interpretations of the original songs. You may use it for private study, scholarship, research or language learning purposes only