» » »

Paul Mccartney, All Shook Up Bass tabs (ver.1)

Artists:  A B C D E F G H I J K L M N O P Q R S T U V W X Y Z # 

All Shook Up Bass tabs (ver.1)

Paul Mccartney Tabs
 Rating:
4.2/5 (5 votes)
All Shook Up lessons Tabs too difficult? Try these video lessons and learn fast
                    ----------------------------------------------------------

    PAUL McCARTNEY - ALL SHOOK UP (Blackwell/Presley) From RUN
                     DEVIL RUN album. Released on October 5th, 
                     1999.
      
    ----------------------------------------------------------

    Bass tab by:PJVillanueva





    A well, bless my soul
    What's wrong with me?
    I'm itching like a man on a fuzzy tree
    My friends say I'm actin' wild as a bug
    I'm in love
    I'm all shook up
    Mmm mmm mmm mmm ... yeah, yeah, yeah!

    Oh, well, my hands are shaky and my knees are weak
    I can't seem to stand on my own two feet
    Who do you thank when you have such luck?
    I'm in love
    I'm all shook up
    Mmm mmm mmm mmm ... yeah, yeah, yeah!

    Well, uh, please don't ask me what's on my mind
    I'm a little mixed up, but I'm feelin' fine
    When I'm near that girl that I love best
    My heart beats so it scares me to death!

    She touched my hand what a chill I got
    Her lips are like a volcano that's hot
    I'm proud to say she's my buttercup
    I'm in love
    I'm all shook up
    Mmm mmm mmm mmm ... yeah, yeah, yeah!
    Mmm mmm mmm mmm ... yeah, yeah, yeah!
    Mmm mmm mmm mmm ... Baby now, I'm all shook up.                             
                                               



     GUITAR INTRO

                                                         A   well, 
     00:06

   G|------- ------- ------- -------|------- ------- ------- -------|
   D|-------------------------------|-------------------------------|
   A|7-------7---7---7-------7---7--|7---7---7-------7-------7------|
   E|-------------------------------|-------------------------------|
     bless   my      soul    What's  wrong   with                I'm 
                                                 me?


   G|------- ------- ------- -------|------- ------- ------- -------|
   D|-------------------------------|-------------------------------|
   A|7---7---7-------7-------7------|7-------7-------7-------7------|
   E|-------------------------------|-------------------------------|
     itching like    man     on  a   fuzzy       tree            My
                 a


   G|------- ------- ------- -------|------- ------- ------- -------|
   D|-------------------------------|-------------------------------|
   A|7---------------7-------7------|7---------------7--------------|
   E|-------------------------------|-------------------------------|
     friends say I'm actin'          wild    a   bug     I'm in
                                         as


   G|------- ------- ------- -------|------- ------- ------- -------|
   D|-------------------------------|-------------------------------|
   A|7-------\----------------------|-------------------------------|
   E|----------------0--------------|-------------------------------|
     love                        I'm all     shook       Mmm mmm mmm 
                                                 up


   G|------- ------- ------- -------|------- ------- ------- -------|
   D|----------------2---2----------|--------1-------4-------1------|
   A|0---0---4---------------4------|2------------------------------|
   E|-------------------------------|-------------------------------|
                                 mmm mmm mmm                     Yeah



   G|------- ------- ------- -------|------- ------- ------- -------|
   D|2------------------------------|-------------------------------|
   A|--------4-------2-----------2--|----------------2---2---4-/-7--|
   E|------------------------4------|0-------4----------------------|
                 yeah            yeah                    Oh, well, 
                                                                 my 

     00:23

   G|------- ------- ------- -------|------- ------- ------- -------|
   D|-------------------------------|-------------------------------|
   A|7-------7-------7---7---7------|7---7---7-------7-------7------|
   E|-------------------------------|-------------------------------|  
     hands   are shaky       and my  knees   are weak            I



   G|------- ------- ------- -------|------- ------- ------- -------|
   D|-------------------------------|-------------------------------|
   A|7-------7-------7---7---7------|7---7---7-------7-------7------|
   E|-------------------------------|-------------------------------|
     can't  seem to  stand   on  my  own     two     feet        Who



   G|------- ------- ------- -------|------- ------- ------- -------|
   D|-------------------------------|-------------------------------|
   A|7---7-----------7--------------|7---7-------7---7-------7------|
   E|-------------------------------|-------------------------------|
         do      you thank   when    have    such    luck?   in
                                 you                     I'm


   G|------- ------- ------- -------|------- ------- ------- -------|
   D|-------------------------------|-------------------------------|
   A|7-------\----------------------|-------------------------------|
   E|----------------0--------------|-------------------------------|
     love                        I'm all     shook       Mmm mmm mmm 
                                                 up


   G|------- ------- ------- -------|------- ------- ------- -------|
   D|----------------2--------------|--------1-------4-------1------|
   A|0---0---4---------------4------|2------------------------------|
   E|-------------------------------|-------------------------------|
                                 mmm mmm mmm                     Yeah



   G|------- ------- ------- -------|------- ------- ------- -------|
   D|2------------------------------|-------------------------------|
   A|--------4-------2-----------2--|-------------------------------|
   E|------------------------4------|0-------2-------3-------4------|
                 yeah            yeah                    Well, 
                                                             uh,

     00:39

   G|------- ------- ------- -------|------- ------- ------- -------|
   D|----------------2-----------2--|----------------2--------------|
   A|0-------4---------------4------|0-------4---------------4------|
   E|-------------------------------|-------------------------------|
     please  don't   ask     me  what's  on      my  mind        I'm        
                                                                   a


   G|------- ------- ------- -------|------- ------- ------- -------|
   D|2------------------------------|-------------------------------|
   A|--------4-------2-----------2--|-------------------------------|
   E|------------------------4------|0-------2-------3-------4------|
     little  mixed   up,     but I'm feelin'     fine            When



   G|------- ------- ------- -------|------- ------- ------- -------|
   D|----------------2--------------|----------------2--------------|
   A|0---0---4---------------4------|0-------4---------------4------|
   E|-------------------------------|-------------------------------|
     I'm near    girl            that    love    best            my
             that                    I


   G|------- ------- ------- -------|------- ------- ------- -------|
   D|--------1-------4-------1------|--------1-------4-------1------|
   A|2---2--------------------------|2------------------------------|
   E|-------------------------------|-------------------------------|
     heart   beats   so  it      scares      me  to  death!  She 
                                                             touched


     00:50

   G|------- ------- ------- -------|------- ------- ------- -------|
   D|-------------------------------|-------------------------------|
   A|7-------7-------7--------------|7---------------7-------7------|
   E|-------------------------------|-------------------------------|
             my      hand    what    chill       got             Her
                                 a       I


   G|------- ------- ------- -------|------- ------- ------- -------|
   D|-------------------------------|-------------------------------|
   A|7-------7-------7-------7------|7---------------7--------------|
   E|-------------------------------|-------------------------------|
     lips    are like    a   volcano         that's              I'm
                                                 hot


   G|------- ------- ------- -------|------- ------- ------- -------|
   D|-------------------------------|-------------------------------|
   A|7-------7-------7-------7------|7---------------7--------------|
   E|-------------------------------|-------------------------------|
         proud   to  say     she's   buttercup           I'm in
                         that    my 


   G|------- ------- ------- -------|------- ------- ------- -------|
   D|-------------------------------|-------------------------------|
   A|7-------\----------------------|-------------------------------|
   E|----------------0--------------|-------------------------------|
     love                        I'm all     shook       Mmm mmm mmm 
                                                 up


   G|------- ------- ------- -------|------- ------- ------- -------|
   D|----------------2---2----------|--------1-------4-------1------|
   A|0-------4---------------4------|2------------------------------|
   E|-------------------------------|-------------------------------| 
                                 mmm mmm mmm                     Yeah



   G|------- ------- ------- -------|------- ------- ------- -------|
   D|2---2--------------------------|------------------------2------|
   A|--------4-------2-----------2--|----------------2--------------|
   E|------------------------4------|0-------4----------------------|
             yeah                Yeah!           
                                               
     SOLO
     01:07

   G|------- ------- ------- -------|------- ------- ------- -------|
   D|----------------------------2--|2---2--------------------------|
   A|----------------2-------4------|--------4-------2-----------2--|
   E|0-------4----------------------|------------------------4------|



   G|------- ------- ------- -------|------- ------- ------- -------|
   D|----------------------------2--|2---2--------------------------|
   A|----------------2-------4------|--------4-------2---2-------2--|
   E|0-------4----------------------|------------------------4------|



   G|------- ------- ------- -------|------- ------- ------- -------|
   D|-------------------------------|-------------------------------|
   A|-------------------------------|-------------------------------|
   E|5---5---5---5---5---5---5-----3/5-------3-------2-------1------|



   G|------- ------- ------- -------|------- ------- ------- -------|
   D|----------------------------2--|2---2--------------------------|
   A|----------------2---2---4------|--------4-------2--------------|
   E|0-------4----------------------|------------------------4------|



   G|------- ------- ------- -------|------- ------- ------- -------|
   D|--------1-------4-------1------|----------------0-------1------|
   A|2---------------------------2--|0-------4----------------------|
   E|-------------------------------|-------------------------------|



   G|------- ------- ------- -------|------- ------- ------- -------|
   D|2-------0----------------------|-------------------------------|
   A|----------------4-------2------|-------------------------------|
   E|-------------------------------|0-------2-------3-------4------|
                                                         Well,
                                                             uh,


     01:24

   G|------- ------- ------- -------|------- ------- ------- -------|
   D|----------------2-----------2--|----------------0-------1------|
   A|0-------4---------------4------|0-------4----------------------|
   E|-------------------------------|-------------------------------| 
     please  don't   ask     me  what's  on      my  mind        I'm        
                                                                   a

 

   G|------- ------- ------- -------|------- ------- ------- -------|
   D|2------------------------------|-------------------------------|
   A|--------4-------2-----------2--|----------------2--------------|
   E|------------------------4------|0-------4---------------4------|
     little  mixed   up,     but I'm feelin'     fine            When




   G|------- ------- ------- -------|------- ------- ------- -------|
   D|----------------2--------------|----------------2--------------|
   A|0-------4---------------4------|0-------4---------------4------|
   E|-------------------------------|-------------------------------|
     I'm near    girl            that    love    best            my
             that                    I



   G|------- ------- ------- -------|4------ 4------ 4---4-- 4------|
   D|--------1-------4-------1---4--|-------------------------------|
   A|2------------------------------|-------------------------------|
   E|-------------------------------|-------------------------------|
     heart   beats   so  it      scares      me  to  death!  She 
                                                             touched



     01:35

   G|------- ------- ------- -------|------- ------- ------- -------|  
   D|2-------0----------------------|-------------------------------|
   A|----------------4-------2------|0------------------------------|
   E|-------------------------------|--------4-------3-------2------|
             my      hand    what    chill       got             Her
                                 a       I


   G|------- ------- ------- -------|------- ------- ------- -------|
   D|-------------------------------|2------------------------------|
   A|----------------2-------4------|--------4-------2-------4------|
   E|0-----/-4----------------------|-------------------------------|
     lips    are like    a   volcano         that's              I'm
                                                 hot


   G|------- ------- ------- -------|------- ------- ------- -------|
   D|-------------------------------|2------------------------------|
   A|----------------2-------4------|--------4-------2-------4---4--|
   E|0-------4----------------------|-------------------------------|
         proud   to  say     she's   buttercup           I'm in
                         that    my 


   G|------- ------- ------- -------|------- ------- ------- -------|
   D|-------------------------------|-------------------------------|
   A|-------------------------------|-------------------------------|
   E|0---------------0--------------|-------------------------------|
     love                        I'm all     shook       Mmm mmm mmm 
                                                 up


   G|------- ------- ------- -------|------- ------- ------- -------| 
   D|----------------2---2----------|--------1-------4-------1------|
   A|0---0---4---------------4------|2---2--------------------------|
   E|-------------------------------|-------------------------------|
                                 mmm mmm mmm                     Yeah



   G|------- ------- ------- -------|------- ------- ------- -------|
   D|2------------------------------|-------------------------------|
   A|--------4-------2-----------2--|----------------2-----------2--|
   E|------------------------4------|0-----/-4---------------4------|
                 yeah            yeah!                   Mmm mmm mmm
 
                                                

   G|------- ------- ------- -------|------- ------- ------- -------| 
   D|----------------2---2----------|--------1-------4-------1------|
   A|0-------4---------------4------|2------------------------------|
   E|-------------------------------|-------------------------------|
                                 mmm mmm mmm             Yeah



   G|------- ------- ------- -------|------- ------- ------- -------|
   D|2------------------------------|-------------------------------|
   A|--------4-------2-----------2--|----------------2--------------|
   E|------------------------4------|0-----/-4---------------4------|
     yeah                                                Mmm mmm mmm 

                                                

   G|------- ------- ------- -------|------- ------- ------- -------| 
   D|----------------2--------------|--------1-------4-------3------|
   A|0-------4---------------4------|2------------------------------|
   E|-------------------------------|-------------------------------|
                                 mmm mmm mmm      
     


   G|------- ------- ------- -------|------- ------- ------- -------|
   D|2------------------------------|------------2------------------|
   A|--------4-------2-\------------|-------------------------------|
   E|------------------------4------|0------------------------------|
     Baby        now             I'm all     shook                            
                                                 up


   



        B  Bend
        R  Release
        /  slide up
        \  slide down
        H  hammer-on
        P  pull-off
        ~  vibrato
        +  harmonic
        x  Mute note
        . - play note like a dot in standard notation
        ^ - ties two notes together
        (.  Pause
            
Submit corrections

comments powered by Disqus
↑ Back to top | Paul Mccartney Bass for All Shook Up. Lyrics for acoustic guitar and electric guitar. Tablatures and chords are parodies/interpretations of the original songs. You may use it for private study, scholarship, research or language learning purposes only