» » »

Pat Travers, Gettin Betta Tabs (ver.2)

Artists:  A B C D E F G H I J K L M N O P Q R S T U V W X Y Z # 

Gettin Betta Tabs (ver.2)

Pat Travers Tabs
 Rating:
4/5 (4 votes)
Gettin Betta lessons Tabs too difficult? Try these video lessons and learn fast
1
                You should bend both notes a half step up not just the G in the first section my tab 
would let me do both notes. And then the little disco part in the second section you need 
listen to the song for the timing I didn't know how to tab that out.


E|---------------------------------------------------------|
B|-5-----------------5-5----5------------------------------|
G|-5b6---------------5-5----5b6----------------------------|
D|-----7--5h7--7p5-------7------7-5h7--7p5----5-5----5-5---|
A|-----------------7-----------------------7---------------|
E|------------------------------------------------8------8-|


E|------------------------11-12-12-------------------------------------|
B|-3-3-3--4-4-3--------------------------------------------------------|
G|-2-2-2--3-3-2-----------8--9--9--------------------------------------|
D|-1-1-1--2-2-1------------------------------------------------2-0-----|
A|-2-2-2--3-3-2-2--------------------------2-4--2--4-------2-4-----2---|
E|----------------3b4-0--------------0-0-3-----------0-0-3-----------3-|

E|-----9---------11---12-12-12---11-11-11-|
B|-2---8---------10---11-11-11---10-10-10-|
G|-2-2/9---2-4/--11---12-12-12---11-11-11-|
D|-2-------1------------------------------|
A|-0-------2------------------------------|
E|----------------------------------------|
            
Submit corrections

comments powered by Disqus
↑ Back to top | Pat Travers Tabs for Gettin Betta. Lyrics for acoustic guitar and electric guitar. 1 Tablatures and chords are parodies/interpretations of the original songs. You may use it for private study, scholarship, research or language learning purposes only