>
 >
Gettin Betta

Gettin Betta Guitar Tabs

Pat Travers - Gettin Betta chords, tabs, tablatures, lyrics

Guitar lessons | Add/correct | Request | Top 50 tabs Artists:  A B C D E F G H I J K L M N O P Q R S T U V W X Y Z 0-9

Gettin Betta Guitar Tabs – Pat Travers

CD, Sheet music, Poster

Do you like Gettin Betta? Share with your friends now
TabsTabs v2
-----------------------------------------------------------
               Pat Travers:  Getting Betta
-----------------------------------------------------------
Tuning: Standard
Based on the studio version from the album "Go for what you know"
Still working on the main solo.

Lick I
e|--------------------------------------------------------|
b|--------------------------------------------------------|
g|----5--5---------------------------5--5-----------------|
d|----5--5----7--5--7~----7--p5------5-----7~---7--p5-----|
a|----3--3-----------------------7---------------------7--|
E|--------------------------------------------------------|

e|--------------------------------------------------------|
b|--------------------------------------------------------|
g|----5--5---------------------------------5--------5-----|
d|----5--5----7--5--7~----7--p5------5-5---5---5-5--5-----|
a|----3--3-----------------------7------------------------|
E|--------------------------------------------------------|

e|--------------------------------------------------------|
b|--------------------------------------------------------|
g|----5--5---------------------------5--5-----------------|
d|----5--5----7--5--7~----7--p5------5-----7~---7--p5-----|
a|----3--3-----------------------7---------------------7--|
E|--------------------------------------------------------|

e|--------------------------------------------------------|
b|--------------------------------------------------------|
g|----5--5------------------------------------------------|
d|----5--5----7--5--7~----7--p5------5-5------------------|
a|----3--3-----------------------7------------------------|
E|--------------------------------------------------------|

e|--------------------------------------------------------|
b|--------------------------------------------------------|
g|----4--4--4-------5--5--4-------------------------------|
d|----4--4--4-------5--5--4-------------------------------|
a|----2--2--2-------3--3--2-------------------------------|
E|---------------------------------------3---2------------|
 
   (18 sec )
e|--------------------------------------------------------|
b|------------9---9999---9---9---9--9999---9---9---9- etc.|
g|--------------------------------------------------------|
d|----2---------------------------------------------------|
a|----2---------------------------------------------------|
E|----0---------------------------------------------------|


   Lick II  (26 sec)
e|--------------------------------------------------------|
b|--------------------------------------------------------|
g|--------------------------------------------------------|
d|--------------------------------------------------------|
a|--------------------4----2---4--------------------------|
E|---0-----2-3-4------------------------------------------|

e|--------------------------------------------------------|
b|--------------------------------------------------------|
g|--------------------------------------------------------|
d|-------------------------2------------------------------|
a|--------------------4----------5---4---2----------------|
E|---0-----2-3-4------------------------------------------|

e|--------------------------------------------------------|
b|--------------------------------------------------------|
g|--------------------------------------------------------|
d|--------------------------------------------------------|
a|--------------------4----2---4--------------------------|
E|---0-----2-3-4------------------------------------------|
                                              
e|--------------------------------------------------------|
b|--------------------------------------------------------|
g|--------------------------------------------------------|
d|-------------------------2------------------------------|
a|--------------------4----------5---------------repeat---|
E|---0-----2-3-4-------------------------2~---------------|

Verse I with mutted Lick II/strumming

  Baby you know me...
e|--------------------------------------------------------|
b|--------------------------------------------------------|
g|------6-------------------------------------------------|
d|------7-------------------------------------------------|
a|------7-------------------------------------------------|
E|------5-------------------------------------------------|

   I would'nt lie ie ie ie ie
e|--------------------------------------------------------|
b|--------------------------------------------------------|
g|------8-------------------------------------------------|
d|------9-------------------------------------------------|
a|------9-------------------------------------------------|
E|------7-------------------------------------------------|

e|--------------------------------------------------------|
b|--------------------------------------------------------|
g|-----9----9----9-------------8--8---8-------------------|
d|-----8----8----8-------------7--7---7-------------------|
a|-----10---10---10------------9--9---9-------------------|
E|-----8----8----8-------------7--7---7-------------------|

                  (1min 10sec)
e|--------------------------------------------------------|
b|--------------------------------------------------------|
g|--------------------------------------------------------|
d|----------------2---------------------------------------|
a|----------------2---------------------------------------|
E|------3---2-----0---------------------------------------|

   Lick II with following lead over
e|--------------------------------------------------------|
b|--------------------------------------------------------|
g|----9-9----7---9---7---9-9------11(12)---11-------------|
d|--------------------------------------------------------|
a|--------------------------------------------------------|
E|--------------------------------------------------------|

e|------------------------------12--p10-------------------|
b|-----------------12--12(14)-------------12--p10---------|
g|----9--11--9-------------------------------------12-p11-|
d|--------------------------------------------------------|
a|--------------------------------------------------------|
E|--------------------------------------------------------|

e|--------------------------------------------------------|
b|--------------------------------------------------------|
g|---9--11--p9-------9---11--12--11--9----7---9---------|
d|---------------12---------------------------------------|
a|--------------------------------------------------------|
E|--------------------------------------------------------|

Verse mutted with Lick II

   Lick III  (1min 44sec)
e|--------------------------------------------------------|
b|--------------------------------------------------------|
g|-------------6----x-x-x-x-------------------------------|
d|-------------6----x-x-x-x--------2----------------------|
a|----2--h3----4----x-x-x-x--------2----------------------|
E|---------------------------------0----------------------|

e|--------------------------------------------------------|
b|--------------------------------------------------------|
g|-------------6----x-x-x-x-----6-4------4-/5------------|
d|-------------6----x-x-x-x-----6-4------4-/5------------|
a|----2--h3----4----x-x-x-x-----4-2------2-/3------------|
E|--------------------------------------------------------|

e|--------------------------------------------------------|
b|--------------------------------------------------------|
g|---------------x-x-x-x----------------------------------|
d|----6----------x-x-x-x----2-----------------------------|
a|----6----------x-x-x-x----2-----------------------------|
E|----4---------------------0-----------------------------|

e|--------------------------------------------------------|
b|--------------------------------------------------------|
g|-------------6----x-x-x-x-----6-4------4-/5------------|
d|-------------6----x-x-x-x-----6-4------4-/5------------|
a|----2--h3----4----x-x-x-x-----4-2------2-/3------------|
E|--------------------------------------------------------|
   Repeat last two measures throughout main solo
   
  Lick IV (3min 50sec)
e|--------------------------------------------------------|
b|--------------------------------------------------------|
g|--------------------------------------------------------|
d|----------2-----------------8---------6---5---3---------|
a|-------------3--3----5--------10------4---3---1---------|
E|----3--3----------------5-------------------------------|

e|--------------------------------------------------------|
b|--------------------------------------------------------|
g|--------------------------------------------------------|
d|----------2------------------/10--8---------------------|
a|-------------3--3----5----------------8--10-------------|
E|----3--3----------------5---------------------9--8--6---|

e|--------------------------------------------------------|
b|--------------------------------------------------------|
g|--------------------------------------------------------|
d|----------2-----------------8---------6---5---3---------|
a|-------------3--3----5--------10------4---3---1---------|
E|----3--3----------------5-------------------------------|

e|--------------------------------------------------------|
b|--------------------------------------------------------|
g|--------------------------------------------------------|
d|----------2------------------/10--8---------------------|
a|-------------3--3----5----------------8--10-------------|
E|----3--3----------------5---------------------9--8--6---|

e|--------------------------------------------------------|
b|--------------------------------------------------------|
g|----------------------7----7----------------------------|
d|-----8--8------7------7----7----------------------------|
a|-----8--8------7------5----5----------------------------|
E|-----6--6------5----------------------------------------|

Lick V (4min 6sec)  
e|--------------------------------------------------------|
b|--------------------------------------------------------|
g|----------------------------------------------7--7------|
d|----------------------------------------------7--7------|
a|----------------3-3---2-2---------------------5--5------|
E|----2-2---3-3---------------3--2---3-2-3----------------|


  
e|--------------------------------------------------------|
b|--------------------------------------------------------|
g|---------------------------------------------7--7-------|
d|---------------------------------------------7--7-------|
a|----------------3-3---2-2----1-1--0-0--------5--5-------|
E|----2-2---3-3--------------------------3----------------|

e|--------------------------------------------------------|
b|--------------------------------------------------------|
g|----------------------------------------------7--7------|
d|----------------------------------------------7--7------|
a|----------------3-3---2-2---------------------5--5------|
E|----2-2---3-3---------------3--2---3-2-3----------------|

e|--------------------------------------------------------|
b|--------------------------------------------------------|
g|------------------------------------------9--9----------|
d|------------------------------------------9--9----------|
a|----------------3-3---2-2-----------------7--7----------|
E|----2-2---3-3---------------3---------------------------|

e|--------------------------------------------------------|
b|--------------------------------------------------------|
g|-------------------------------------------9--9---------|
d|-------------------------------------------9--9---------|
a|---------------5-5---4-4-------------------7--7---------|
E|----4-4---5-5-------------5-4-5-4-5---------------------|

e|--------------------------------------------------------|
b|--------------------------------------------------------|
g|-------------------------------------------7--7---------|
d|-------------------------------------------7--7---------|
a|---------------5-5---4-4--3-3---2-2--1-----5--5---------|
E|----4-4---5-5-------------------------------------------|

Lick V (x4) end with Em

| /  slide up
|   slide down
| h  hammer-on
| p  pull-off
| ~  vibrato
| +  harmonic
| x  Mute note
=====================================================================





Comments


Popular Pat Travers tabs & chords
I La La La Love You Bass Tabs
I La La La Love You Chords
Gettin Betta 1 Tabs
I La La La Love You Tabs
Rock N Roll Susie Tabs
Snortin Whiskey Tabs
I La La La Love You Ukulele


Song lyrics



↑ Back to top | Tablatures and chords are parodies/interpretations of the original songs. You may use it for private study, scholarship, research or language learning purposes only
© 2014 AZChords.com Contact us | Privacy policy | DMCA | Add/correct tabs | Request tabs | Top 50 tabs