» » »

Patrice, Truly Majestic Tabs (ver.1)

Artists:  A B C D E F G H I J K L M N O P Q R S T U V W X Y Z # 

Truly Majestic Tabs (ver.1)

Patrice Tabs
Rating:
2/5 (2 votes)
Truly Majestic lessons Tabs too difficult? Try these video lessons and learn fast
                Patrice - Truly majestic
By Garrido

Hello, it's my first tab. I try to give you the main chord of this beautiful song.

verse
You are truly majestic...
   A#                Dm             Cm7
E ---------------------------------------------------------|
B --------6-----6----------6-----6--------4-----4----------|
G --------7-----7----------7-----7--------3-----3----------|         X2
D --------8-----8----------7-----7--------5-----5----------|
A -------------------5--5-----5------3--3-----3------------|
E -6--6-----6----------------------------------------------|

2nd verse
You have the royal flex...
  D#m7            Dm7
E -------6-----6-------5----5--------|
B -------7-----7-------6----6--------|
G -------6-----6-------5----5--------|     X3
D -----------------------------------|
A -6--6-----6----5--5-----5----------|
E -----------------------------------|

you don't know say you're blessed (yau yau)...
   Cm7
E --------3----3-------|
B --------4----4-------|
G --------3----3-------|     X2
D ---------------------|
A -3--3-----3----------|
E ---------------------|


chorus
You are, you are...
   Dm7              Cm7
E -------5----5--------3----3----|
B -------6----6--------4----4----|
G -------5----5--------3----3----|
D -------------------------------|
A -5--5----5-----3--3----3-------|
E -------------------------------|

        A#
You are truly majestic
Dm
full of natural mystic
Cm7
in the times so unexspected
Cm7
yes i truly feel affected
You are truly majestic
full of natural mystic
in the times so unexspected
yes i truly feel affected

	 D#7
you have the royal flex
         Dm
you have man head a spin, (true)
         D#m7
you have royalness
               Dm7
you no want no duck you want a king
	     D#m7
should use a real empress
            Dm7
you can not seccel for less (no)
Cm7
you don't know say you're blessed (yau yau)
no other girl can test
'cause you're yourself
and you are unique
that's why you are just the best (yau)
none a dem inna your league
full of originality and so much more quality (yau)
me appreciate love your company

'cause you are truly majestic
full of natural mystic
in the times so unexspected
yes i truly feel affected
you are truly majestic
full of natural mystic
in the times so unexspected
yes i truly feel affected (yau)

one of da queens
just life up to your dreams (yau)
remember love's a stream (yau)
headin' for the sea
you are the sweetest thing
that my eyes have seen (yau)
without you I couldn't feel complete
no I mean (yau)

Dm7
you are, you are
Cm7
damn what I think about you
would lead to far
world wouldn't spin without you
my soulsister
I just couldn't doubt you
whatever they may say you are...

truly majestic
full of natural mystic
in the times so unexspected
there's a truly feel affected
You are truly majestic
full of natural mystic
in the times so unexspected
there's a truly feel affecteted

(guitar solo)

you are, you are
damn what I think about you
would lead to far
world wouldn't spin without you
my soulsister (yau)
I couldn't doubt you
whatever they may say you are...

truly majestic
full of natural mystic
in the times so unexspected
yes i truly feel affected
You are truly majestic
full of natural mystic
in the times so unexspected
yes i truly feel affecteted

(guitar)
(whispering)
you are truly majestic
full of natural mystic
            

comments powered by Disqus
↑ Back to top | Patrice Tabs for Truly Majestic. Lyrics for acoustic guitar and electric guitar. Tablatures and chords are parodies/interpretations of the original songs. You may use it for private study, scholarship, research or language learning purposes only