» » »

Patrice, It Hurts To Be Alone Tabs (ver.1)

Artists:  A B C D E F G H I J K L M N O P Q R S T U V W X Y Z # 

It Hurts To Be Alone Tabs (ver.1)

Patrice Tabs
 Rating:
4/5 (4 votes)
It Hurts To Be Alone lessons Tabs too difficult? Try these video lessons and learn fast
1
                
Live patrice also just strums the chords, whatever you prefer


Chords used:

C#	x4666x
F#	x-9-11-11-11-x
Fm7	x-8-10-8-9-8
D#m7	x68676	
F#	244322 

A#m	x13321
F	133211
G#7	464544
G#7?	467544 or use A? 5675xx which I prefer
F#m	244222
F#/G#	4x432x

(if you don't wanna use F#/G# you can use G#7 instead



Picking pattern first progression

|---------------------------------------|
|-----6-----6--------11----9----7----2--|
|----6-6---6-6-------11----8----6----3--|
|---6---6-6---6----11----10----8----4---| 
|--4-----4--------9-----8-----6----4----|
|---------------------------------------|
  c#		  F#    Fm7   D#m7 F#



Picking pattern second porgression:

|-------------------------------------------------------------------|
|----2-------------------------2-----------------------6-------2----|
|---3-3------2------5----5----3-3------2-------5------6-6-----3-3---|
|--3---3----3-3-----4----7---3---3----4-4-----4-4----6---6---4---4--| 
|-1--------3---3---6----6---1--------4---4---6---6--4---------------|
|---------1-------4----4------------2-------4---------------4-------|
 A#m	  F	  G#7  G#7? A#m	    F#m	    G#7     C#      F#/G#
            
Submit corrections

comments powered by Disqus
↑ Back to top | Patrice Tabs for It Hurts To Be Alone. Lyrics for acoustic guitar and electric guitar. 1 Tablatures and chords are parodies/interpretations of the original songs. You may use it for private study, scholarship, research or language learning purposes only