» » »

Patrice, Soulstorm Tabs (ver.1)

Artists:  A B C D E F G H I J K L M N O P Q R S T U V W X Y Z # 

Soulstorm Tabs (ver.1)

Patrice Tabs
 Rating:
3.4/5 (11 votes)
Soulstorm lessons Tabs too difficult? Try these video lessons and learn fast
                e|--5--5--3--5--|
b|--5--6--3--5--|
g|--5--7--4--5--|
D|--7--7--5--7--|
A|--7--5--5--7--|
E|--5--5--3--5--|

    Am Dm G Am



e|--0-5-0-5-8-7-5---7-5--|
b|----------------8------|
g|-----------------------|
D|-----------------------|
A|-----------------------|
E|-----------------------|
            
Submit corrections

comments powered by Disqus
↑ Back to top | Patrice Tabs for Soulstorm. Lyrics for acoustic guitar and electric guitar. Tablatures and chords are parodies/interpretations of the original songs. You may use it for private study, scholarship, research or language learning purposes only