» » »

Patrice, Sunshine Tabs (ver.1)

Artists:  A B C D E F G H I J K L M N O P Q R S T U V W X Y Z # 

Sunshine Tabs (ver.1)

Patrice Tabs
Rating:
4/5 (1 vote)
Sunshine lessons Tabs too difficult? Try these video lessons and learn fast
                Sunshine (Patrice)

I recommend playing the song with a capo on 2nd fret,
using the chords Am, D, C, Em. I play the intro,
interlude and the outro fingerstyle, during the
verses and the chorus I strum. Hope you like it that way.
Greetings from Germany!

Intro (repeat several times):
     Am                                 D
E----0---------------------------0------2---------------------2----------|
B---------1----------------1------------------3---------------------3----|
G---------------2----2------------------------------2----2---------------|
D---------------------------------------0--------------------------------|
A----0-------------------------------------------------------------------|
E------------------------------------------------------------------------|


Am             D
   And when I feel
Am                       D
   life's heavy labours calling.
Am           D
   I make myself
Am          D
   light as light
     Am
   I think of things
            D
   as they come to me
Am         D
   without warning
      C                                D
   A train of thoughts passing through on the tracks

Chorus:

Am
       D
we be cruising,
            C
it's in our music
                 Em
that's where the truth is
            Am
cos we have done that
               D
cos we haven't been there
        C
I wanna go there
            Em
cos we will run that,
        Am
I wanna go for real

   Am
   See the sun shine
              D                              Am
   in winter time see snow falling in summer time
                           D
   it's all crazy like our minds
                           Am
   all this anger makes us blind.
                                  D
   For all these poisons that are mine
                    Am
   I know I can not rewind
                            D
   as I struggle to be more kind
          C
   As the train lies and I mess around
   D
   I'm so young but not without a sound,
   C
   been seen double, keeping me down
      D
   I fiddle with a thought but not without a sound

play chorus again


play the following part with the same chords as in the chorus:

( I wanna feel it,
I wanna be there,
I want you to feel it,
the way that I feel it.
Don't you conceal it,
come on reveal it,
you better kiss me
you better love your self.)


Interlude:

   Am                D                 C                 Em
E--0--------------0--2-----------2-----0-----------1-----0----------|
B-----1--------1--------3-----------3-----1-----------------0-------|
G--------2--2--------------2--2--------------0--0-----0--------0----|
D--------------------0----------------------------------------------|
A--0-----------------------------------3----------------------------|
E--------------------------------------------------------0----------|


I don`t exactly know how to play the next part. If you do, please let me know!

My body and your body
can fuse into one
shadow on the wall.
Your body and my body
produce somebody
a soundbody.
Just look what we conjured
out of nowhere like the notes
that thrill the air

play chorus again

(I wanna feel it,
I wanna be there,
I want you to feel it,
the waythat I feel it.
Don't you conceal it,
come on reveal it,
you better kiss me
you better love your self)

Outro (same as interlude, repeat several times):

   Am                D                 C                 Em
E--0--------------0--2-----------2-----0-----------1-----0----------|
B-----1--------1--------3-----------3-----1-----------------0-------|
G--------2--2--------------2--2--------------0--0-----0--------0----|
D--------------------0----------------------------------------------|
A--0-----------------------------------3----------------------------|
E--------------------------------------------------------0----------|
            

comments powered by Disqus
↑ Back to top | Patrice Tabs for Sunshine. Lyrics for acoustic guitar and electric guitar. Tablatures and chords are parodies/interpretations of the original songs. You may use it for private study, scholarship, research or language learning purposes only