» » »

Patrice, Soulstorm Bass tabs (ver.1)

Artists:  A B C D E F G H I J K L M N O P Q R S T U V W X Y Z # 

Soulstorm Bass tabs (ver.1)

Patrice Tabs
 Rating:
4/5 (4 votes)
Soulstorm lessons Tabs too difficult? Try these video lessons and learn fast
                SOULSTORM

intro:

g|-------------------|
d|-------------------|
a|-----------------5-|
e|-------------------|

g|-------------------------------|
d|-------------------------------|
a|---------5-53--------------5---|	2x
e|--5-5555------3--35--5-5----5--|


verse:

g|----------------------------|
d|----------------------------|
a|---------5-5555-------------|	4x
e|--5-5555--------3-3-5--x5-5-|

played with slight variations each time but these are the basic notes

chorus:

g|-----------------------------|
d|-----------------------------|
a|--------5-xx5----------------|  2x/4x
e|--5-xx5-------3-xx3-5-xx5----|


bridge:

g|---------7-77-7-----------------|
d|--7-7777--------5-55-5-7-77-7---|
a|--------------------------------|	4x
e|--------------------------------|
            
Submit corrections

comments powered by Disqus
↑ Back to top | Patrice Bass for Soulstorm. Lyrics for acoustic guitar and electric guitar. Tablatures and chords are parodies/interpretations of the original songs. You may use it for private study, scholarship, research or language learning purposes only