» » »

Decemberween Bass tabs (ver.2)

Artists:  A B C D E F G H I J K L M N O P Q R S T U V W X Y Z # 

Decemberween Bass tabs (ver.2)

Patent Pending
Rating:
0/5 (0 votes)

Tabs too difficult? Try these video lessons and learn fast.
                -------------------------------------------------------------------------------
			     Decemberween - Patent Pending
-------------------------------------------------------------------------------


Tuning: reg.
guitar intro then...
00:10                                    00:13
G|---------------------------------------------------------------------------|
D|---------------------------------------------------------------------------|            
A|-------------7---------------------------------------7777------------------|
E|---------------------------------------------------------------------------|
riff
G|-----9------9---------------------------5---------5------------------------|
D|---------------------------------------------------------------------------|
A|--7-----7-------------6----9-------3---------3-------------2-5h6-----------|
E|----------------7---------------------------------------3------------------|

G|-----9------9---------------------------5---------5------------------------|
D|---------------------------------------------------------------------------|
A|--7-----7-------------6----9-------3---------3-----------------------------|
E|----------------7---------------------------------------3333---------------| 
          REPEAT RIFF 10 TIMES. THEN...

G|---------------------------------------------------------------------------|
D|---------------------------------------------------------------------------|
A|-----------------------------7---------------------------------------------|
E|---------------------------------------------------------------------------|
buildup
G|---------------------------------------------------------------------------|
D|---------------------------------------------------------------------------|
A|-------7--7--6-------------3--3--2-----------------------------------------|
E|----------------7--7--7-------------3--3--3--------------------------------|
            REPEAT BUILDUP 4 TIMES. THEN...

G|---------------------------------------------------------------------------|
D|---------------------------------------------------------------------------|
A|-----7--7--6------------3--3--2--------------------------------------------|
E|--------------7--7--7-------------333333-----------------------------------|

G|---------------------------------------------------------------------------|
D|---------------------------------------------------------------------------|
A|----7777------3333---------------------------------------------------------|
E|---------7777------3333----------------------------------------------------|

G|---------------------------------------------------------------------------|
D|---------------------------------------------------------------------------|
A|----7777------3333---------------------------------------------------------|
E|---------7777------3--WOO!-------------------------------------------------|
BREAKDOWN
G|---------------------------------------------------------------------------|
D|---------------------------------------------------------------------------|
A|----777776--------333332---------------------------------------------------|
E|-----------777777--------333333--------------------------------------------|
               REPEAT BREAKDOWN UNTIL END

so thats is i know its right aim me at curtism317 tell me how it is.


| /  slide up
| \  slide down
| h  hammer-on
| p  pull-off
| ~  vibrato
| +  harmonic
| x  Mute note
===============================================================================
            
Tabs too difficult? Try these video lessons and learn fast.




comments powered by Disqus
↑ Back to top | Tablatures and chords are parodies/interpretations of the original songs. You may use it for private study, scholarship, research or language learning purposes only