» » »

Patent Pending, Decemberween Bass tabs (ver.1)

Artists:  A B C D E F G H I J K L M N O P Q R S T U V W X Y Z # 

Decemberween Bass tabs (ver.1)

Patent Pending Tabs
 Rating:
4/5 (4 votes)
Decemberween lessons Tabs too difficult? Try these video lessons and learn fast
                Tuning: Standard EADG

Picked Guitar intro

Intro
         {x2                               }
G|-------|--1-2-4---------|----------------|
D|----222|2---------1-4---|--2-3-5---------|
A|-------|--------2-------|3---------2-5---|
E|3------|----------------|--------3-------|

Chorus
G|---------------|---------------|
D|2-2-2-2--------|---------------|
A|--------2-2-2-2|3-3-3-3--------| {x4}
E|---------------|--------3-3-3-3|

Verses
G|--1-2-4--------|---------------|
D|2---------1-4--|--2-3-5--------|
A|--------2------|3---------2-5--| {x8}
E|---------------|--------3------|


Chorus Again
Verse Again
Chorus Again

Bridge
G|-------|-------|----------|-------|
D|-------|-------|----------|-------|
A|9---9-9|8---8-8|10---10-10|7---7-7| {x4}
E|-------|-------|----------|-------|

Outro
G|-----------|-----------|-----------|-----------|
D|2-2-2-2-2-2|-----------|-----------|-----------|
A|-----------|2-2-2-2-2-2|3-3-3-3-3-3|-----------|
E|-----------|-----------|-----------|3-3-3-3-3-3|

G|-----------|-----------|-----------|-----------|
D|2-2-2-2-2-2|-----------|-----------|-----------|
A|-----------|2-2-2-2-2-2|3-3-3-3-3-3|-----------|
E|-----------|-----------|-----------|3----------|

G|-----------|-----------|-----------|-----------|
D|2-2-2-2-2-2|-----------|-----------|-----------|
A|-----------|2-2-2-2-2-2|3-3-3-3-3-3|-----------| {x8}
E|-----------|-----------|-----------|3-3-3-3-3-3|

G|-----------|-----------|-----------|-----------|
D|2~~~~~~~~~~|-----------|-----------|-----------|
A|-----------|2~~~~~~~~~~|3~~~~~~~~~~|-----------|
E|-----------|-----------|-----------|~~~~~~~~~~~|


Thats It


Tip: Use your pinky finger when playing, no matter what style you play, it makes things 
scales passing notes much more smooth and easy.  Not using it takes away 25% of your 
ability.
            
Submit corrections

comments powered by Disqus
↑ Back to top | Patent Pending Bass for Decemberween. Lyrics for acoustic guitar and electric guitar. Tablatures and chords are parodies/interpretations of the original songs. You may use it for private study, scholarship, research or language learning purposes only