» » »

Passion, Sweet Music Tabs (ver.1)

Artists:  A B C D E F G H I J K L M N O P Q R S T U V W X Y Z # 

Sweet Music Tabs (ver.1)

Passion Tabs
 Rating:
4/5 (4 votes)
Sweet Music lessons Tabs too difficult? Try these video lessons and learn fast
                TUNING: Standard Tuning
 6 5 4 3 2 1  (String Number)
|E|A|D|G|B|e| (Low to high)
NOTE: I got this tab by asking Passion himself, and even thought it was long
and also very tedius, especially over the phone, I think I managed to learn
it all. Capo on the 7th if you really need. Other than that, its really easy.
DIFFICULTY LEVEL: Easy
CHORDS USED: (xx7878)  (779787)  (9x999x)  (x989|10|x)

VERSE/CHORUS/PRETTY MUCH EVERYTHING: These are just the general patterns.

e|--------8-----------------------------------------|
B|------7---8~----8h10h8-----------9--10~--10-9-8---|
G|----8-----7~--7--------7-------9----9~------------|
D|--7-------9~-------------9---9------8~------------|
A|----------7~------------------------9~------------|
E|---------------------------9----------------------|

e|--8-8-------------------------------------------|
B|--7-7---8~---8h10h8------------9--10~--10-9-8---|
G|--8-8---7~-7--------7--------9----9~------------|
D|--7-7---9~------------9----9------8~------------|
A|--------7~------------------------9~------------|
E|-------------------------9----------------------|

(x= mute/slap) (/= slide up/down) (h= hammer on) (p= pull off) (~= let ring)
            
Submit corrections

comments powered by Disqus
↑ Back to top | Passion Tabs for Sweet Music. Lyrics for acoustic guitar and electric guitar. Tablatures and chords are parodies/interpretations of the original songs. You may use it for private study, scholarship, research or language learning purposes only