» » »

Oh Vienna Tabs (ver.1)

Artists:  A B C D E F G H I J K L M N O P Q R S T U V W X Y Z # 

Oh Vienna Tabs (ver.1)

Passion
Rating:
0/5 (0 votes)

Tabs too difficult? Try these video lessons and learn fast.
                Title     : Oh Vienna
Artist    : Jeremy Passion


Standard Tuning (EADGBE)

x2022x
x0220x
x1202x


Intro
e|-----x------0-------x-----0---------x-----0-------------------------------------|
B|--2--x--2----2---0--x--0---0---1/2--x--2---2---2--------------------------------|
G|--2--x--2-----2--2--x--2----2--1/2--x--2----2--0--------------------------------|
D|--0--x--0--------2--x--2-------0/0--x--0-------2--------------------------------|
A|--2--x--2--------0--x--0-------1/2--x--2-------1------------0h2--2/4--4\2--0--2-|
E|-----x--------------x---------------x------------------0h2----------------------|

e|-----x------0-------x-----0---------x-----0------------|
B|--2--x--2----2---0--x--0---0---1/2--x--2---2---2-------|
G|--2--x--2-----2--2--x--2----2--1/2--x--2----2--0-------|
D|--0--x--0--------2--x--2-------0/0--x--0-------2-------|
A|--2--x--2--------0--x--0-------1/2--x--2-------1-------|
E|-----x--------------x---------------x------------------|


Verse/Chorus:

  I wrote the books..      I made...         sang...          that lack of...
e|--x----------------x-------x-------x-------x-----x-------x----------------------|
B|--x-------------2--x--2----x----0--x--0----x--2--x--2----x--2-------------------|
G|--x-------------2--x--2----x----2--x--2----x--2--x--2----x--0-------------------|
D|--x-------------0--x--0----x----2--x--2----x--0--x--0----x--2-------------------|
A|--x-------------2--x--2----x----0--x--0----x--2--x--2----x--1-------------------|
E|--x----------------x-------x-------x-------x-----x-------x----------------------|

Repeat...
            
Tabs too difficult? Try these video lessons and learn fast.




comments powered by Disqus
↑ Back to top | Tablatures and chords are parodies/interpretations of the original songs. You may use it for private study, scholarship, research or language learning purposes only