» » »

Passafire, Casting Of The Cares Tabs (ver.2)

Artists:  A B C D E F G H I J K L M N O P Q R S T U V W X Y Z # 

Casting Of The Cares Tabs (ver.2)

Passafire Tabs
Rating:
0/5 (0 votes)
Casting Of The Cares lessons Tabs too difficult? Try these video lessons and learn fast
                ------------------------------------------------------------------------------------
                           CASTING OF THE CARES - Passafire
------------------------------------------------------------------------------------

Tuning: Standard

Chords to know:
        C#m           F#m     D    Bm             B             A             G#
e |---4---|---1---|---5---|---2---|---2---|---5---|---4---|
B |---5---|---1---|---7---|---3---|---4---|---5---|---4---|
G |---6---|---1---|---7---|---4---|---4---|---6---|---5---|
D |---6---|---3---|---7---|---4---|---4---|---7---|---6---|
A |---4---|---3---|---5---|---2---|---2---|---7---|---6---|
E |---X---|---1---|---X---|---X---|---X---|---5---|---4---|

Intro Riff: Play 2x
e|------------------------------------------------------------------------------------|
B|-----2----2---------3----3----------3----3------------3----3-----------2----2-------|
G|------------------------------------------------------------------------------------|
D|----------------------------2h4--5----5----4--2--2h4----0----2--4--2----------------|
A|--0----0----2h4--5----5--------------------------------------------------0----4-----|
E|------------------------------------------------------------------------------------|

e|----------------------------------2------------------------------------------|
B|--------3----3--------------3------------------------------------------------|
G|-------------------------------2---------------------------------------------|
D|--2--0----0------------------------------------------------------------------|
A|----------------4--0--2--2---------------------------------------------------|
E|-----------------------------------------------------------------------------|

***Lick between Bm and F#m in Verses 1 and 2***
e|-------------------------------|
B|-------------------------------|
G|-------------------------------|
D|-------------------------------|
A|--0--0--2--2h4-----------------|
E|-----------------2-------------|


Intro Verse:
---Play Intro Riff---
With a love everlasting,
you're the last thing,
I see before, casting,
my cares in the fire.
---Play Intro Riff---
And it feels like a good thing,
but it could bring
me to my knees,
so I pray we survive.


Verse 1:
C#m                     F#m
The look in your eyes, so continuous,
D               C#m                 Bm***
let it get to us, I'll give you all my trust,
F#m          B    A          G#
I'll be the rock upon your sand.
C#m                      F#m
All your crooked smiles, they've been good to me,
D               C#m                    Bm***
yeah it's good to be next to you, now you see,
F#m         B        A       G#
the way I crumble in your hands.


Chorus:
C#m  F#m    D     C#m     Bm***      F#m    B      A    G#
Oh!  No!    Those  hard  times.      These  hard  cri-imes
C#m  F#m    D     C#m     Bm***      F#m    B      A    G#
Oh!  No!    Those  hard  times.      These  hard  cri-imes

Intro Verse:
---Play Intro Riff---
With a love everlasting,
you're the last thing,
I see before, casting,
my cares in the fire.
---Play Intro Riff---
And it feels like a good thing,
but it could bring
me to my knees,
so I pray we survive.

Verse 2:
C#m                        F#m
The last time we spoke, shared a smoke,
D             C#m                   Bm***
I was sad but I laughed at all of your jokes,
F#m            B        A         G#
and watched the night become the day.
C#m             F#m
It was innocent, significant,
D               C#m            Bm***
let it get to us, it makes no difference,
F#m            B        A       G#
there's always something in the way.

Chorus:
C#m  F#m    D     C#m     Bm***      F#m    B      A    G#
Oh!  No!    Those  hard  times.      These  hard  cri-imes
C#m  F#m    D     C#m     Bm***      F#m    B      A    G#
Oh!  No!    Those  hard  times.      These  hard  cri-imes

I haven't tabbed out the solo yet, so if anyone has, hit me up...
            

comments powered by Disqus
↑ Back to top | Passafire Tabs for Casting Of The Cares. Lyrics for acoustic guitar and electric guitar. Tablatures and chords are parodies/interpretations of the original songs. You may use it for private study, scholarship, research or language learning purposes only