» » »

Passafire, Casting Of The Cares Tabs (ver.1)

Artists:  A B C D E F G H I J K L M N O P Q R S T U V W X Y Z # 

Casting Of The Cares Tabs (ver.1)

Passafire Tabs
Rating:
5/5 (4 votes)
Hard to play? Try these video lessons and learn fast.
                Casting of the Cares
Passafire
Everyone On Everynight


Passafire is too great of a band to not have very many tabs on them 
so im gonna start transcribing their songs best i can.  
this is my first of their songs.



chords: (in verse) (in pre chorus and chorus use power chord/ barre chord format) 

       A     D     G     Bm
e|-----5----(7)----3-----2-----|
b|-----5-----7-----3-----3-----|
G|-----6-----7-----4-----4-----|
D|-----7-----7-----5-----------|
A|-----------------------------|
E|-----------------------------|


verse:

 A               D
  With the love everlasting
         G                Bm
Your the last thing that i see before
A           D            Bm
 casting my cares in the fire
A                 D
 and it feels like a good thing 
      G              Bm
but it could bring me to my knees
A     D          Bm
 so i pray we survive


pre-chorus:

C#m
 the look in your eyes
F#m
 so continuous
D             C#m
 let it get to us
Bm
 i give you all my trust
F#m         B     A       G#
 ill be the rock upon the sand
C#m
 all your creepy smiles
F#m
 they've been good to me
D              C#m
 it's good to be next to you 
Bm
 now you see
F#m        B       A       G#
 the way i crumble in your hands


chorus:                         lick between Bm and F#m:
                                        e|-------------------|
C#m  F#m   D C#m  Bm                    b|-------------------|
  oh   no   those hard times            G|-------------------|
F#m    B   A  G#                        D|-------------------|
 these hard crimes                      A|----0-2--2h4-------|
C#m  F#m   D   C#m   Bm                 E|--------------2----|
  oh   no  were doing hard time
F#m       B    A  G#m
 for these hard crimes


verse:

A               D
  With the love everlasting
         G                Bm
Your the last thing that i see before
A           D            Bm
 casting my cares in the fire
A                 D
 and it feels like a good thing 
      G              Bm
but it could bring me to my knees
A     D          Bm
 so i pray we survive


pre-chorus:
C#m
 the last time we spoke
F#m
 shared a smoke
D         C#m    Bm                     F#m 
 i was sad but i laughed at all of your jokes 
                B     A         G#
and watched the night become the day
C#m             F#m
 it was inocent, significant
D         C#m    Bm
 let it get to us
        F#m
makes no difference 
               B         A      G#
there's always something in the way


chorus:

C#m  F#m   D C#m  Bm
  oh   no   those hard times
F#m    B   A  G#
 these hard crimes
C#m  F#m   D   C#m   Bm
  oh   no  were doing hard time
F#m       B    A  G#m
 for these hard crimes


bridge:

  E  F#m   E  F#m  x4

   F#m G# A

into solo over chorus:

e|----------------------------------------------------------------------|
B|----------------------------------------------------------------------|
G|-------11b-11--9-11b-11---9-11b-11--9-----------11b-11---9-9h11-8-----|
D|--------------------------------------11-----11-----------------------|
A|----------------------------------------------------------------------|
E|----------------------------------------------------------------------|

e|-----------------------------------------------------------------------------|
B|----14--16--17----14--16--19-----10-12--12b-12b-12---10----10-12b-12-10-11b--| 
G|(13)--13--13--13----14--14--14--9--9--9-----------------11--------------12b--| 
D|-----------------------------------------------------------------------------|
A|-----------------------------------------------------------------------------|
E|-----------------------------------------------------------------------------|

(move up a half step on the last note if you cant make the bend)
            

comments powered by Disqus
↑ Back to top | Passafire Tabs for Casting Of The Cares. Lyrics for acoustic guitar and electric guitar. Tablatures and chords are parodies/interpretations of the original songs. You may use it for private study, scholarship, research or language learning purposes only