» » »

Your Song Tabs (ver.1)

Artists:  A B C D E F G H I J K L M N O P Q R S T U V W X Y Z # 

Your Song Tabs (ver.1)

Parokya Ni Edgar
Rating:
0/5 (0 votes)

Hard to play? Try these video lessons and learn fast.
                YOUR SONG (track 17 of Bigotilyo)
Parokya ni Edgar


Standard tuning: (EADGBE)
Capo on 2nd fret

Verse:

E------0--2--2-		-0--2--0-0-0-
B-0/2--0--2--3-		-2--3--0-0-0-
G-2-2--1--2--2-		-2--2--1-2-1-
D-2-2--2--4--0-play 3x 	-2--0--2-2-2-
A-0-0--2--4----		-0-----2-2-2-
E------0--2----		-------0-0-0-

Chorus:

E-0-0--0--2--2\0-
B-0/2--0--3--2\0-
G-2-2--1--2--2\1-
D-2-2--2--0--4\2-play 2x
A-0-0--2-----4\2-
E------0-----2\0-

Adlib:

E-0-0--0--2--2-3-2----
B-0/2--0--2--3-3-3----
G-2-2--1--2--2-2-2----
D-2-2--2--4--0-0-0----
A-0-0--2--4-----------
E------0--2-----------

Refrain:

E-2--0--2-3-2--
B-2--0--3-3-3--
G-2--1--2-2-2--play 2x
D-4--2--0-0-0--
A-4--2---------
E-2--0---------

2nd chorus:

E-0-0--0--2--2\0-        -0-
B-0/2--0--3--2\0-        -2-
G-2-2--1--2--2\1-        -2-
D-2-2--2--0--4\2-play 4x -2-
A-0-0--2-----4\2-        -0-
E------0-----2\0-        ---
            
Hard to play? Try these video lessons and learn fast. | Correct




comments powered by Disqus
↑ Back to top | Tablatures and chords are parodies/interpretations of the original songs. You may use it for private study, scholarship, research or language learning purposes only