» » »

Y Tabs (ver.2)

Artists:  A B C D E F G H I J K L M N O P Q R S T U V W X Y Z # 

Y Tabs (ver.2)

Parokya Ni Edgar
Rating:
0/5 (0 votes)

Hard to play? Try these video lessons and learn fast.
                "(1)
 
Y?
 
legends:
"s" - slide to
"h" - hammer-on
 
this is the intro:
 
e---3--3-----3-----3--
b----------3-----3----
g---------------------
d---------------------
a---------------------
e---------------------
 
stanza 1: 
G-D-C9
search your minds for the questions
of the answers that i seek
close your eyes just imagine
us together walking down the street
 
stanza 2:
G-D-C9
do you think this is crazy
i don't know that of which i speak
but i don't care, just as long as you are there
watching, listening, and swaying to the beat..
 
chorus:
G-D-C9
tell me y, should it matter
tell me y, should i even care
of the things that could go wrong
baby i can't hold for long
for you to know that i'am there
tell me y?.... y?
 
stanza 3:
G-D-C9
hear the words that i'm saying 
hear them echo in your hearts
for i know at this moment,
i know that i've done my part
                Am-B-C-Am-B-C-D
done my part....ooohhhh...
 
this is the solo tab:
e-------------------------------------------------
b-----7--6--8--9--10--11--10--11--12--11--12--14--
g--6----------------------------------------------
d-------------------------------------------------
a-------------------------------------------------
e-------------------------------------------------
 
e-------------
b-----9----9--
g--8----8-----
d-------------
a-------------
e-------------
 
e--6h7--6--7--9-------------------------
b---------------------7-----7--8--6--9--
g------------------------8--------------
d---------------------------------------
a---------------------------------------
e---------------------------------------
 
e--9s10--8-8-8--7------------------------
b-----------------------8---8-8-8--------
g-------------------------------------7--
d----------------------------------------
a----------------------------------------
e----------------------------------------

e--9-11-9--------------------
b------------12-11--12-11-9--
g----------------------------
d----------------------------
a----------------------------
e----------------------------
 
e--9-11-9----14-13------7--6---------
b-------------------------------7-7--
g------------------------------------
d------------------------------------
a------------------------------------
e------------------------------------
 
e-----------------------------------------
b-----7--6--8--9--10--11--12--11--12--14--
g--6--------------------------------------
d-----------------------------------------
a-----------------------------------------
e-----------------------------------------
 
(repeat chorus)
 
G-D-C9
tell me y?
tell me y?
tell me y?
....Y?.....
 
that's all! and ENJOY!
sa solo tab pala, ang ibang part dyan, maririnig lang sa cassette tape at hindi sa cd!
so yun lang!
just listen to the song to get perfect timing when to insert each tab!
"            
Hard to play? Try these video lessons and learn fast. | Correct




comments powered by Disqus
↑ Back to top | Tablatures and chords are parodies/interpretations of the original songs. You may use it for private study, scholarship, research or language learning purposes only