» » »

Parokya Ni Edgar, Pumapatak Ang Ulan Tabs (ver.2)

Artists:  A B C D E F G H I J K L M N O P Q R S T U V W X Y Z # 

Pumapatak Ang Ulan Tabs (ver.2)

Parokya Ni Edgar Tabs
Rating:
0/5 (0 votes)
Pumapatak Ang Ulan lessons Tabs too difficult? Try these video lessons and learn fast
                  Tabbed:1/31/2007
                                                                                         
                                                                  Pumapatak na naman 
ulan sa bubong ng bahay
  Di maiwasang gumawa ng di inaasahang bagay
  Laklak ng laklak ng beer sa magdamagan
  May kahirapan at di maiwasan
  Mabuti pa kaya matulog ka na lang
  Bago sumakit ang tiyan

  e|-------10---------------------10----------------------------------------|
  B|-10h12----10---------------------12-10----------------------------------|
  G|-------------11-11-12p11---------------11-------------------------------|
  D|-------------------------12-9-------------12-14p12----------------------|
  A|------------------------------------------------------------------------|
  E|------------------------------------------------------------------------|

  Ang araw koy nabubusisi ako ang nasisisi
  Bakit ba sila ganyan

  e|------------------------------------------------------------------------|
  B|------------------------------------------------------------------------|
  G|------------------------------------------------------------------------|
  D|----------12----14-12----14/16-14-12------------------------------------|
  A|-------12----12-------12-------------14-12----12-14---------------------|
  E|-12/14-------------------------------------14-------12------------------|

  Ang pera koy hindi magkasya hindi makapagsine
  At ayaw na dagdagan

  e|------------------------------------------------------------------------|
  B|-------7-10----12-10----------------------------------------------------|
  G|-9-7-9------11-------11-------------------------------------------------|
  D|------------------------12-14-12----12----------------------------------|
  A|---------------------------------14----14-12-14----12-------------------|
  E|------------------------------------------------14----12----------------|

  Ubos na rin ang beer kaya ano na lamang
  Lahat sinusubukan kahit walang pulutan
  Ang buhay ng tamad walang hinaharap
  Ni konting sarap man lang

  e|---------------------------------7--------------------------------------|
  B|-------------------7---7-10-7-10---7-10-12------------------------------|
  G|-------7---7-9-7-9---9--------------------------------------------------|
  D|-9-7-9---9--------------------------------------------------------------|
  A|------------------------------------------------------------------------|
  E|------------------------------------------------------------------------|

  Radyo, tv, at mga lumang komiks
  Wala ng ibang mapaglibangan
  At kung meron kang tatawagan
  Credit mo sa text ay makakaltasan

Adlib:

 e|----14------------------------------------------------------------------|
 B|-15----15----------------------15----17-15-------------------15---------|
 G|----------14----------------14----14-------14----------14-------14-12-12|
 D|-------------17-16p14-14-16-------------------16-17-16----17------------|
 A|------------------------------------------------------------------------|
 E|------------------------------------------------------------------------|

 e|------------------12----10-12-------------------------------------------|
 B|---------------------12-------15-17----17----15-17--17----------17-15---|
 G|-11-12-------9/12-------------------16----16-----------16-14-16---------|
 D|-------12-14------------------------------------------------------------|
 A|------------------------------------------------------------------------|
 E|------------------------------------------------------------------------|

 e|------------------------------------------------------------------------|
 B|------------------------------------------------------------------------|
 G|-16-14-12-14-12-9-------12-------12--------12-16------------------------|
 D|------------------12-14----12h14-----12h14------------------------------|
 A|------------------------------------------------------------------------|
 E|------------------------------------------------------------------------|

  Umiindak ang paa sa kumpas ng tugtuging bago

 e|-12-11----14-11----12-11----14-11----12-11----14-11----12-11----14-11----|
 B|-------12-------12-------12-------12-------12-------12-------12-------12-|
 G|-------------------------------------------------------------------------|
 D|-------------------------------------------------------------------------|
 A|-------------------------------------------------------------------------|
 E|-------------------------------------------------------------------------|

 Hanggang kumpas ka na lang at di mo na alam ang tono

 e|-------------------------------------------------------------------------|
 B|-------------------------------------------------------------------------|
 G|-----------9-13-13p11-9-11-9---------------------------------------------|
 D|-9----9-11-------------------14p11-9-11-9--------------------------------|
 A|---11-------------------------------------11-----------------------------|
 E|-------------------------------------------------------------------------|

 Sa paghinto ng ulan Ano ang gagawin
 Wag ng isipin at walang babaguhin
 Mabuti pa kayang matulog ka na lang
 Matulog ka nang mahimbing

 e|-12----------------------------------------------------------------------|
 B|----14-12-14-12----12----------------------------------------------------|
 G|----------------13----13-11-13-11----11----------------------------------|
 D|----------------------------------14----14-11-14-11----11-14-16----------|
 A|----------------------------------------------------14-------------------|
 E|-------------------------------------------------------------------------|

 Pumapatak na naman ang ulan
 Pumapatak na naman ang ulan

 Para sa mga newbies...kaya nyo 2! tnx mga pla sa PNE sa kanta!
 Galing sa owner!!!!!!!!!!!!!!!!!!!!!!
            

comments powered by Disqus
↑ Back to top | Parokya Ni Edgar Tabs for Pumapatak Ang Ulan. Lyrics for acoustic guitar and electric guitar. Tablatures and chords are parodies/interpretations of the original songs. You may use it for private study, scholarship, research or language learning purposes only