» » »

Ordertaker Tabs (ver.2)

Artists:  A B C D E F G H I J K L M N O P Q R S T U V W X Y Z # 

Ordertaker Tabs (ver.2)

Parokya Ni Edgar
Rating:
0/5 (0 votes)

Hard to play? Try these video lessons and learn fast.
                        

	Para to sa mga gutom! hehehehe astig tong song na 2 pinag samang chop suey at toxicity
	kasama ng parokya ang kamikazee sa pag tugtog ng kantang to....ang lufet nila
	at nakakatawa ang lyrics....oist nga pala mga ka bandm8ts nag papalufet lang kaya 
	nag sa-submit ng tab hehehehe... this is not accurate cguro mga 97.8 % lang toh!

Drop D Tuning

Intro:

 e|--------------------------------------------------------|
 B|--------------------------------------------------------|
 G|--------------------5---4-------------------5---4-------|
 D|---2---5-5-4-4-2----5---4--2---5-5-4-4-2----5---4-------|
 A|---2---5-5-4-4-2----3---2--2---5-5-4-4-2----3---2-------|
 D|---2---5-5-4-4-2-----------2---5-5-4-4-2----------------|



 e|--------------------------------------------------------|
 B|--------------------------------------------------------|
 G|------------------------------------------------5---4---|
 D|----5-5-4-4-2-5-5-4-4-2-5-5-4-4-2-5-5-4-4-2-----5---4---|
 A|----5-5-4-4-2-5-5-4-4-2-5-5-4-4-2-5-5-4-4-2-----3---2---|
 D|----5-5-4-4-2-5-5-4-4-2-5-5-4-4-2-5-5-4-4-2-------------|


 e|----------------------------|
 B|----------------------------|
 G|--------------------5---4---|
 D|---2---5-5-4-4-2----5---4---|
 A|---2---5-5-4-4-2----3---2---|
 D|---2---5-5-4-4-2------------|

riff

 e|--------------------------------------------------------|
 B|-------------------------------8-----8------------------|
 G|-------9-----9-----9-----9---7-----7-------7-----7------|
 D|-----9-----9-----9-----9---5-----5-------7-----7--------|
 A|---7-----7-----7-----7-----------------5-----5----------|
 D|--------------------------------------------------------|


 e|--------------------------------------------------------|
 B|--------------------------------------------------------|
 G|-------9-----9-----9-----9-----5-----5-----4-----4------|
 D|-----9-----9-----9-----9-----5-----5-----4-----4--------|
 A|---7-----7-----7-----7-----3-----3-----2-----2----------|
 D|--------------------------------------------------------|

Stanza

 e|---------------------------------------------------------------------------|
 B|---------------------------------------------------------------------------|
 G|---------------------------------------------------------------------------|
 D|---2-2-----2-2-2-2-2-2-2-1-1----------------1-1-1-1-1-1-1-2-2--------------|
 A|---2-2-----2-2-2-2-2-2-2-1-1----------------1-1-1-1-1-1-1-2-2--------------|
 D|---2-2-----2-2-2-2-2-2-2-1-1----------------1-1-1-1-1-1-1-2-2--------------|
    Waiter!  Pa order naman ako ng porkchop!  at tsaka ng dalawa ngang kanin!

 e|---------------------------------------------------------------------------|
 B|---------------------------------------------------------------------------|
 G|---------------------------------------------------------------------------|
 D|---2-2-2-2-2-2-2-1-1--------------------1-1-1-1-1-1-1-2-2------------------|
 A|---2-2-2-2-2-2-2-1-1--------------------1-1-1-1-1-1-1-2-2------------------|
 D|---2-2-2-2-2-2-2-1-1--------------------1-1-1-1-1-1-1-2-2------------------|
    lagyan mo narin ng konting ketchup!  meron ba kayong chopsuey? (wala po!)

 e|---------------------------------------------------------------------------|
 B|---------------------------------------------------------------------------|
 G|---------------------------------------------------------------------------|
 D|---2-2-2-2-2-2-2-1-1--------------------1-1-1-1-1-1-1-2-2------------------|
 A|---2-2-2-2-2-2-2-1-1--------------------1-1-1-1-1-1-1-2-2------------------|
 D|---2-2-2-2-2-2-2-1-1--------------------1-1-1-1-1-1-1-2-2------------------|
    meron ba kayong adobo? (wala rin po!)  meron ba kayong bulalo?

 e|---------------------------------------------------------------------------|
 B|---------------------------------------------------------------------------|
 G|---------------------------------------------------------------------------|
 D|---2-2-2-2-2-2-2-1-1--------------------1-1-1-1-1-1-1----------------------|
 A|---2-2-2-2-2-2-2-1-1--------------------1-1-1-1-1-1-1----------------------|
 D|---2-2-2-2-2-2-2-1-1--------------------1-1-1-1-1-1-1----------------------|
    meron bang kahit ano? (wala!) wala!

Refrain

 e|--------------------------------------------------------|
 B|--------------------------------------------------------|
 G|-------------------------------------5---4--------------|
 D|----2--5-5-4-4-2---------------------5---4--------------|
 A|----2--5-5-4-4-2---------------------3---2--------------|
 D|----2--5-5-4-4-2----------------------------------------|
    Hoy! wala na bang mo-oh!  wala na bang maorder maorder

 e|--------------------------------------------------------|
 B|--------------------------------------------------------|
 G|-------------------------------------5---4--------------|
 D|----2--5-5-4-4-2---------------------5---4--------------|
 A|----2--5-5-4-4-2---------------------3---2--------------|
 D|----2--5-5-4-4-2----------------------------------------|
    shet! meron ngang menu   wala namang maorder o waiter

 e|-----------------------------------------------------------------------------|
 B|-----------------------------------------------------------------------------|
 G|--------------------------------------------------------5---4----------------|
 D|----5-5-4-4-2-5-5-4-4-2-5-5-4-4-2-5-5-4-4-2-------------5---4----------------|
 A|----5-5-4-4-2-5-5-4-4-2-5-5-4-4-2-5-5-4-4-2-------------3---2----------------|
 D|----5-5-4-4-2-5-5-4-4-2-5-5-4-4-2-5-5-4-4-2----------------------------------|
                  sana naman                     may siopao man lamang o burger

 e|--------------------------------------------------------|
 B|--------------------------------------------------------|
 G|-------------------------------------5---4--------------|
 D|----2--5-5-4-4-2---------------------5---4--------------|
 A|----2--5-5-4-4-2---------------------3---2--------------|
 D|----2--5-5-4-4-2----------------------------------------|
     paorder! paorder!                 paorder!

Interlude:

 e|--------------------------------------------------------|
 B|-------------------------------8-----8------------------|
 G|-------9-----9-----9-----9---7-----7-------7-----7------|
 D|-----9-----9-----9-----9---5-----5-------7-----7--------|
 A|---7-----7-----7-----7-----------------5-----5----------|
 D|--------------------------------------------------------|


 e|--------------------------------------------------------|
 B|--------------------------------------------------------|
 G|-------9-----9-11---11-9---9-----5-----5-----4----------|
 D|-----9-----9------9------9-----5-----5-----4-----4------|
 A|---7-----7-------------------3-----3-----2-----2--------|
 D|--------------------------------------------------------|

Repeat stanza and refrain

 e|------------------------------------------------------------------------------------|
 B|------------------------------------------------------------------------------------|
 G|--9-9-9-9-9-9-9-9-8-8-8-8-8-8-8-8-11-11-11-11-11-11-11-11-13-13-13-13-13-13-13-13---|
 D|--9-9-9-9-9-9-9-9-8-8-8-8-8-8-8-8-11-11-11-11-11-11-11-11-13-13-13-13-13-13-13-13---| 2x
 A|--7-7-7-7-7-7-7-7-6-6-6-6-6-6-6-6-9--9--9--9--9--9--9--9--12-12-12-12-12-12-12-12---|
 D|------------------------------------------------------------------------------------|

 e|------------------------------------------------------------------------------------|
 B|------------------------------------------------------------------------------------|
 G|--9-9-9-9-9-9-9-9-8-8-8-8-8-8-8-8-11-11-11-11-11-11-11-11-13-13-13-13-13-13-13-13---|
 D|--9-9-9-9-9-9-9-9-8-8-8-8-8-8-8-8-11-11-11-11-11-11-11-11-13-13-13-13-13-13-13-13---|
 A|--7-7-7-7-7-7-7-7-6-6-6-6-6-6-6-6-9--9--9--9--9--9--9--9--12-12-12-12-12-12-12-12---|
 D|------------------------------------------------------------------------------------|
                       waiter na gwapito ano bang meron dito?

 e|------------------------------------------------------------------------------------|
 B|------------------------------------------------------------------------------------|
 G|--9-9-9-9-9-9-9-9-8-8-8-8-8-8-8-8-11-11-11-11-11-11-11-11-13-13-13-13-13-13-13-13---|
 D|--9-9-9-9-9-9-9-9-8-8-8-8-8-8-8-8-11-11-11-11-11-11-11-11-13-13-13-13-13-13-13-13---|
 A|--7-7-7-7-7-7-7-7-6-6-6-6-6-6-6-6-9--9--9--9--9--9--9--9--12-12-12-12-12-12-12-12---|
 D|------------------------------------------------------------------------------------|
                       waiter na gwapito meron bang

 e|---------------------------------------------------------------|
 B|---------------------------------------------------------------|
 G|-----9---9--------------5---5---------------------5---5--------|
 D|-----9---9--------------5---5---------5---5-------5---5--------|
 A|-----7---7--------------3---3---------5---5-------3---3--------|
 D|--------------------------------------5---5--------------------|
     chicken mami      longsi tosi at    tapsi   pansit lugaw at

 e|---------------------------------------------------------------|
 B|---------------------------------------------------------------|
 G|-----9---9--------5---5---------------------5---5--------|
 D|-----9---9--------5---5---------5---5-------5---5--------|
 A|-----7---7--------3---3---------5---5-------3---3--------|
 D|--------------------------------5---5--------------------|
        lomi      tokwa't baboy    pares!      beef!

 e|---------------------------------------------------|
 B|---------------------------------------------------|
 G|-----9---9------5---5--------------5---5-----------|
 D|-----9---9------5---5--5---5-------5---5-----------| 2x
 A|-----7---7------3---3--5---5-------3---3-----------|
 D|-----------------------5---5-----------------------|
        fried      siomai        gutom na talaga ako!
 
 e|---------------------|
 B|---------------------|
 G|---------------------|
 D|----------------5----| 4x
 A|----3-3-3-3-3-3------|
 D|---------------------|

 e|-------------|
 B|-------------|
 G|-------------|
 D|----5-4-2----| 8x
 A|----5-4-2----|
 D|----5-4-2----|

repeat refrain

 e|-------------------------------------------------|
 B|-------------------------------------------------|
 G|-------------------------------------------------|
 D|----2-2-2-2-4-5-5-----------2-2-2-2-4-5-5--------| 2x
 A|----2-2-2-2-4-5-5-----------2-2-2-2-4-5-5--------|
 D|----2-2-2-2-4-5-5-----------2-2-2-2-4-5-5--------|
    tanginang karinderia  wala man lamang meriend
      
            ----------end----------
            
Hard to play? Try these video lessons and learn fast. | Correct




comments powered by Disqus
↑ Back to top | Tablatures and chords are parodies/interpretations of the original songs. You may use it for private study, scholarship, research or language learning purposes only