>
 >
Muli 1

Muli 1 Guitar Tabs

Parokya Ni Edgar - Muli 1 chords, tabs, tablatures, lyrics

Guitar lessons | Add/correct | Request | Top 50 tabs Artists:  A B C D E F G H I J K L M N O P Q R S T U V W X Y Z 0-9

Muli 1 Guitar Tabs – Parokya Ni Edgar

CD, Sheet music, Poster

Do you like Muli 1? Share with your friends now
Bass TabsChordsChords v2TabsTabs v2Ukulele
Band: Parokya Ni Edgar
I wnt to shout out to all the bebots in Chicago,Morton Grove,Skokie,
Des Plaines!! Mga BISALOG!!!! Maota Nimo Ug Nawong!!

Okay, i got tired of printing wrong,incomplete tabs of this song. lol. what a fucken
of my papers. lol. so i just decided to tab it on my own. iono if its accurate or not, but
playing it along with the song, u'll hear it, its not that bad. i also cant rate it, cuz 
not gud in numbers. lol. basta nasa line of 90% cya. hehe. I also have a mp3 of me

Intro:
(guitar 1;Darius) CLEAN w/DELAY EFFECT
E------7---7-----------------------------------------------|
B----5---5---5-4-4h5------4-4h5-4h5------------------------|
G--4-----------------4--6-----------6----------------------|4x
D----------------------------------------------------------|
A----------------------------------------------------------|
E----------------------------------------------------------|

(guitar 2;Gab comes in,on the 3rd time) CLEAN TONE
     E       C#m       E       C#m
E-----------4-4-4-------------4-4-4------------------------|
B-----------5-5-5-------------5-5-5------------------------|
G--1-1-1----6-6-6----1-1-1----6-6-6------------------------|2x
D--2-2-2----6-6-6----2-2-2----6-6-6------------------------|
A--2-2-2----4-4-4----2-2-2----4-4-4------------------------|
E--0-0-0----4-4-4----0-0-0----4-4-4------------------------|

(guitar 1;Darius,after the intro) CLEAN w/DELAY EFFECT

E----------------------------------------------------------|
B--0-0-0--0-0---0--0--0--0-0-0---0--0--0-------------------|
G--6-6-6--8-8---9--9--9--8-8-8---9--9--11------------------|
D--7-7-7--9-9--11-11-11--9-9-9--11-11--13------------------|
A----------------------------------------------------------|
E----------------------------------------------------------|

(guitar 2;Gab) CLEAN TONE
     A        B
E-----------2-2-2------------------------------------------|
B--2-2-2----3-3-3------------------------------------------|
G--2-2-2----3-3-3------------------------------------------|
D--2-2-2----3-3-3------------------------------------------|
A-----------2-2-2------------------------------------------|
E-----------2-2-2------------------------------------------|

Verse 1:
(guitar 1;Darius picks this part,d ko alm kng pano un. lol.)
     E        B       C#m       B
E-----------2-2-2----4-4-4----2-2-2------------------------|
B-----------3-3-3----5-5-5----3-3-3------------------------|
G--1-1-1----3-3-3----6-6-6----3-3-3------------------------|2x
D--2-2-2----3-3-3----6-6-6----3-3-3------------------------|
A--2-2-2----2-2-2----4-4-4----2-2-2------------------------|
E--0-0-0----2-2-2----4-4-4----2-2-2------------------------|

(guitar 2;Gab,if you'll listen to the song,he just rings it for this Verse)
     E        B       C#m       B
E-----------2-2-2----4-4-4----2-2-2------------------------|
B-----------3-3-3----5-5-5----3-3-3------------------------|
G--1-1-1----3-3-3----6-6-6----3-3-3------------------------|2x
D--2-2-2----3-3-3----6-6-6----3-3-3------------------------|
A--2-2-2----2-2-2----4-4-4----2-2-2------------------------|
E--0-0-0----2-2-2----4-4-4----2-2-2------------------------|

(guitar 1;Darius) CLEAN w/DELAY EFFECT
E----------------------------------------------------------|
B--0-0-0--0-0---0--0--0--0-0-0---0--0--0-------------------|
G--6-6-6--8-8---9--9--9--8-8-8---9--9--11------------------|
D--7-7-7--9-9--11-11-11--9-9-9--11-11--13------------------|
A----------------------------------------------------------|
E----------------------------------------------------------|

(guitar 2;Gab)
     A        B
E-----------2-2-2------------------------------------------|
B--2-2-2----3-3-3------------------------------------------|
G--2-2-2----3-3-3------------------------------------------|
D--2-2-2----3-3-3------------------------------------------|
A-----------2-2-2------------------------------------------|
E-----------2-2-2------------------------------------------|

CHORUS:
(guitar 1;Darius) CLEAN w/DELAY EFFECT
E----------------------------------------------------------|
B----------------------------------------------------------|
G--9-9-9--8-8-8---13-13-13---9-9---8-8---------------------|
D--9-9-9--9-9-9----X--X--X---X-X---X-X---------------------|
A--7-7-7--7-7-7-\-11-11-11-/-7-7-/-6-6---------------------|
E----------------------------------------------------------|
                                                              2x
E----------------------------------------------------------|
B----------------------------------------------------------|
G----------------------------------------------------------|
D--7-7-7---9-9--11-11-11---9-9-9--11-11---13-13------------|
A--X-X-X---X-X---X--X--X---X-X-X---X--X----X--X------------|
E--5-5-5-\-7-7-\-9--9--9-\-7-7-7-\-9--9-\-11-11------------|

Then...
     F#5      A5       B5      E5
E----------------------------------------------------------|
B----------------------------------------------------------|
G-----------------------------9----------------------------|
D--4-4-4----7-7-7----9-9-9----9----------------------------|
A--4-4-4----7-7-7----9-9-9----7----------------------------|
E--2-2-2----5-5-5----7-7-7---------------------------------|

(guitar 2;Gab) CLEAN
     E       C#m       A       B
E-----------4-4-4-------------2-2-2------------------------|
B-----------5-5-5----2-2-2----3-3-3------------------------|
G--1-1-1----6-6-6----2-2-2----3-3-3------------------------|2X
D--2-2-2----6-6-6----2-2-2----3-3-3------------------------|
A--2-2-2----4-4-4-------------2-2-2------------------------|
E--0-0-0----4-4-4-------------2-2-2------------------------|

Then...
    F#m       A        B      E
E--2-2-2----5-5-5----2-2-2---------------------------------|
B--2-2-2----5-5-5----4-4-4---------------------------------|
G--3-3-3----6-6-6----4-4-4----1----------------------------|
D--4-4-4----7-7-7----4-4-4----2----------------------------|
A--4-4-4----7-7-7----2-2-2----2----------------------------|
E--2-2-2----5-5-5----2-2-2----0----------------------------|

VERSE II
(Guitar 1 & Guitar 2 plays same thing as VERSE I,except that this time Gab strums his
of ringing it,while Darius picks the chords.)

Note: Right before the Verse II ends and goes to the 2nd Chorus,play this..

(guitar 1;Darius) CLEAN w/DELAY EFFECT
E----------------------------------------------------------|
B--0-0-0--0-0---0--0--0--0-0-0---0--0--0---0-----------=---|
G--6-6-6--8-8---9--9--9--8-8-8---9--9--11-11---------------|
D--7-7-7--9-9--11-11-11--9-9-9--11-11--13-13---------------|
A----------------------------------------------------------|
E----------------------------------------------------------|
Continuation:
E----------------------------------------------------------|
B---0--0--0---0--0---0--0---0--0--0---0--0---0-------------|
G---9--9--9--11-11--13-13--11-11-11--13-13--16-------------|
D--11-11-11--13-13--15-15--13-13-13--15-15--18-------------|
A----------------------------------------------------------|
E----------------------------------------------------------|

(guitar 2;Gab)
     A        B          Hold B
E-----------2-2-2--|    E--2-2-2-2------------------------|
B--2-2-2----3-3-3--|    B--3-3-3-3------------------------|
G--2-2-2----3-3-3--|2X  G--3-3-3-3------------------------|
D--2-2-2----3-3-3--|    D--3-3-3-3------------------------|
A-----------2-2-2--|    A--2-2-2-2------------------------|
E-----------2-2-2--|    E--2-2-2-2------------------------|

CHORUS II:
(guitar 1;Darius) w/DISTORTION EFFECT (I FUCKEN LOVE THIS PART!! lol.)
E--X-x-X--------------------------------------------------|
B--X-X-X--------------------------------------------------|
G--X-X-X---9-9-9--8-8-8---13-13-13---9-9---8-8------------|
D--X-X-X---9-9-9--9-9-9----X--X--X---X-X---X-X------------|
A--X-X-X---7-7-7--7-7-7-\-11-11-11-/-7-7-/-6-6------------|
E--X-X-X--------------------------------------------------|
                                                              2x
E---------------------------------------------------------|
B---------------------------------------------------------|
G---------------------------------------------------------|
D--7-7-7---9-9--11-11---9-9-9--11-11---13-13--------------|
A--X-X-X---X-X---X--X---X-X-X---X--X----X--X--------------|
E--5-5-5-\-7-7-\-9--9-\-7-7-7-\-9--9-\-11-11--------------|

Then...
     F5      A5       B5      E5
E---------------------------------------------------------|
B---------------------------------------------------------|
G-----------------------------9---------------------------|
D--4-4-4----7-7-7----9-9-9----9---------------------------|
A--4-4-4----7-7-7----9-9-9----7---------------------------|
E--2-2-2----5-5-5----7-7-7--------------------------------|

(guitar 2;Gab) w/DISTORTION EFFECT
    E5       C5       D5       B5
E---------------------------------------------------------|
B--------------------7-7-7--------------------------------|
G--9-9-9----6-6-6----7-7-7--------------------------------|2X
D--9-9-9----6-6-6----5-5-5----9-9-9-----------------------|
A--7-7-7----4-4-4-------------9-9-9-----------------------|
E-----------------------------7-7-7-----------------------|

Then...
    F#m      A         B      E
E--2-2-2----5-5-5----2-2-2--------------------------------|
B--2-2-2----5-5-5----4-4-4--------------------------------|
G--3-3-3----6-6-6----4-4-4----1---------------------------|
D--4-4-4----7-7-7----4-4-4----2---------------------------|
A--4-4-4----7-7-7----2-2-2----2---------------------------|
E--2-2-2----5-5-5----2-2-2----0---------------------------|

ADLIB:
(guitar 1;Darius' solo) Distortion Effect,but me,
                        I use it with a lil bit of WAH EFFECT.
E----------11-12-11-------------11-12-11--911~-----------|
B--10---12----------12~---10-12---------------------------|
G---------------------------------------------------------|2x
D---------------------------------------------------------|
A---------------------------------------------------------|
E---------------------------------------------------------|

E----------11-12-11-----12h11----12h11-------11-12-11----11---9----11----|
B--10---12----------12~-------12-------10-12----------12----12--12----12-|
G------------------------------------------------------------------------|
D------------------------------------------------------------------------|
A------------------------------------------------------------------------|
E------------------------------------------------------------------------|

E----------11-12-11-----12h11----12h11-------11-12-119~/-|
B--10---12----------12~-------12-------10-12--------------|
G---------------------------------------------------------|
D---------------------------------------------------------|
A---------------------------------------------------------|
E---------------------------------------------------------|

(guitar 2;Gab) w/DISTORTION EFFECT
    E5       C5       A5       B5
E---------------------------------------------------------|
B--------------------7-7-7--------------------------------|
G--9-9-9----6-6-6----7-7-7--------------------------------|2X
D--7-7-7----6-6-6----5-5-5----9-9-9-----------------------|
A--7-7-7----4-4-4-------------9-9-9-----------------------|
E-----------------------------7-7-7-----------------------|

BRIDGE: LYRICS: "BAKIT 'DI MAPAGBIBIGYAN" PArt
(guitar 1;Darius) Distortion w/WAH EFFECT
This a background solo w/2 guitars soloing at the same time)
GUITAR B:
e----------------------------------------------------------------|
B--6/2--2\4--4\6--6\8--8/6--6/8--8\9--9/8--8/9--9\11--11/9--9/11-|
              |                                                           "|"
GUITAR A:     | GUITAR A doesn't comes in right away. Its starts where the | is.
e----------------------------------------------------------------|
B------------8\9--9\11--11/9--9\11--11\13--13\11--11\13--13/14---|

GUITAR B: Continuation of Guitar B...
e----------------------------------------------------------------|
B--11\13--13\11--11\13--13~~~~~~---------------------------------|

GUITAR A: Continuation of GUITAR A...
e---------------------------------------------------12-----------|
B---14/13--13\14--14\16--16/14--14\16--16~--13--14------16~~-----|

(guitar 2; Gab) w/DISTORTION EFFECT
     A        B            Hold B
E------------------|    E---------------|
B------------------|    B---------------|
G------------------|2X  G---------------|
D--7-7-7----9-9-9--|    D--9-9-9-9------|
A--7-7-7----9-9-9--|    A--9-9-9-9------|
E--5-5-5----7-7-7--|    E--7-7-7-7------|


CHORUS III:
(guitar 1;Darius) w/DISTORTION EFFECT
E--X-x-X--------------------------------------------------|
B--X-X-X--------------------------------------------------|
G--X-X-X---9-9-9--8-8-8---13-13-13---9-9---8-8------------|
D--X-X-X---9-9-9--9-9-9----X--X--X---X-X---X-X------------|
A--X-X-X---7-7-7--7-7-7-\-11-11-11-/-7-7-/-6-6------------|
E--X-X-X--------------------------------------------------|
                                                              2x
E---------------------------------------------------------|
B---------------------------------------------------------|
G---------------------------------------------------------|
D--7-7-7---9-9--11-11---9-9-9--11-11---13-13--------------|
A--X-X-X---X-X---X--X---X-X-X---X--X----X--X--------------|
E--5-5-5-\-7-7-\-9--9-\-7-7-7-\-9--9-\-11-11--------------|

Then...
     F5      D5       B5      E5
E---------------------------------------------------------|
B---------------------------------------------------------|
G-----------------------------9---------------------------|
D--4-4-4----7-7-7----9-9-9----9---------------------------|
A--4-4-4----7-7-7----9-9-9----7---------------------------|
E--2-2-2----5-5-5----7-7-7--------------------------------|

(guitar 2;Gab) w/DISTORTION EFFECT
    E5       C5       A5       B5
E---------------------------------------------------------|
B--------------------7-7-7--------------------------------|
G--9-9-9----6-6-6----7-7-7--------------------------------|2X
D--7-7-7----6-6-6----5-5-5----9-9-9-----------------------|
A--7-7-7----4-4-4-------------9-9-9-----------------------|
E-----------------------------7-7-7-----------------------|

Then...
    F#m      A         B      E
E--2-2-2----5-5-5----2-2-2--------------------------------|
B--2-2-2----5-5-5----4-4-4--------------------------------|
G--3-3-3----6-6-6----4-4-4----1---------------------------|
D--4-4-4----7-7-7----4-4-4----2---------------------------|
A--4-4-4----7-7-7----2-2-2----2---------------------------|
E--2-2-2----5-5-5----2-2-2----0---------------------------|

(guitar 1; Darius) CLEAN w/DELAY EFFECT
E------7---7-----------------------------------------------|
B----5---5---5-4-4h5------4-4h5-4h5------------------------|
G--4-----------------4--6-----------6----------------------|2x
D----------------------------------------------------------|
A----------------------------------------------------------|
E----------------------------------------------------------|

TAPOS na!!!!
So whadya thenk?? is it kewl??
if there's any comments, and what not. just holla at me, okies? Mwuaah..ULOL! lol.
HAve fun, yo! \m/(",)





Comments


Popular Parokya Ni Edgar tabs & chords
Bato Chords
Red Pants Chords
Sampip 1 Chords
Mr. Suave 1 Tabs
Tamad Si Santa Claus Tabs
Bato Ukulele
Ian Ukulele
Lutong Bahay Ukulele
Papa Cologne Ukulele
Yakinikitombo Ukulele


Song lyrics



↑ Back to top | Tablatures and chords are parodies/interpretations of the original songs. You may use it for private study, scholarship, research or language learning purposes only
© 2014 AZChords.com Contact us | Privacy policy | DMCA | Add/correct tabs | Request tabs | Top 50 tabs