>
 >
Halaga Live

Halaga Live Guitar Tabs

Parokya Ni Edgar - Halaga Live chords, tabs, tablatures, lyrics

Guitar lessons | Add/correct | Request | Top 50 tabs Artists:  A B C D E F G H I J K L M N O P Q R S T U V W X Y Z 0-9

Halaga Live Guitar Tabs – Parokya Ni Edgar

CD, Sheet music, Poster

Do you like Halaga Live? Share with your friends now
Tabs
song         :  halaga (live)
artist/band  :  Parokya ni Edgar
submitted on :  Jan. 16, 2008

------intro:------

guitar 2: major chords (D-A-Bm-G[2x])distortion
guitar 1: distortion
  e|---------2-3-2--2-------------------5-3-2--2-3b-2------------------|
  B|-----3-5------5—-3--2-3-5-3-2-3b~~-------3-------3~--3-5-3-2-3b~~--|
  G|-2-4--------------2---------------------------------2--------------|
  D|-------------------------------------------------------------------|
  A|-------------------------------------------------------------------|
  E|-------------------------------------------------------------------|
                                                              (D)  (A)
  e|-------2-3-2--2------------------5-3-2--2-3b-2-----------------------|
  B|---3-5------5--3—2-3-5-3-2-3b~~-------3-------3~--3-5-3-2-3b~3b~3b~~-|
  G|-2--------------2--------------------------------2-------------------|
  D|---------------------------------------------------------------------|
  A|---------------------------------------------------------------------|
  E|---------------------------------------------------------------------|

----VERSE 1: (not shown actual strumming)----
  
GUITAR 1:                 GUITAR 2: (Bm-G)
  e|-2b~~--------------|        |-222222-333333-|
  B|-------3b~~~-3h5-3-|        |-333333-333333-|
  G|-------------------|        |-444444-444444-|
  D|-------------------|        |-444444-555555-|
  A|-------------------|        |-222222-555555-|
  E|-------------------|        |-xxxxxx-333333-|       
  
GUITAR 1 & 2: clean (D-A-Bm-G[2X]-D-A-Bm-A)
   ‘lang hiya talaga ...

  e|-222222-xxxxxx-222222-333333-|     |-222222-xxxxxx-222222-xxxxxx-|     
  B|-333333-222222-333333-333333-|     |-333333-222222-333333-222222-|
  G|-222222-222223-444444-444444-|(2X) |-222222-222223-444444-222222-|
  D|-xxxxxx-222222-444444-555555-|     |-xxxxxx-222222-444444-222222-|
  A|--------xxxxxx-222222-555555-|     |--------xxxxxx-222222-xxxxxx-|
  E|---------------xxxxxx-333333-|     |---------------xxxxxx--------|

----PRE-CHORUS 1:  (not shown actual strumming)----

guitar 1: powerchord (distortion)
guitar 2: major chords (clean)
  
     G       D      A            G      D     Bm      A
  e|---------------------------------------------------------|
  B|---------------------------------------------------------|
  G|--------777777---------------------777777----------------|
  D|-555555-777777-777777777777-555555-777777-999999-777777--|
  A|-555555-555555-777777777777-555555-555555-999999-777777--|
  E|-333333--------555555555555-333333--------777777-555555--|


----VERSE 2: (not shown actual strumming)----
  
GUITAR 1:                              GUITAR 2:
  e|-2~-22222-2-xxxxxx-|-2b~~-------|        |-222222-xxxxxx-222222-333333-| 
  B|-3~-33333-3-222222-|------3b~~--|        |-333333-222222-333333-333333-|
  G|-2~-22222-2-222222-|------------|        |-222222-222223-444444-444444-|
  D|-x--xxxxx-x-222222-|------------|        |-xxxxxx-222222-444444-555555-|
  A|------------xxxxxx-|------------|        |--------xxxxxx-222222-555555-|
  E|-------------------|------------|        |---------------xxxxxx-333333-|

GUITAR 1 & 2: clean (D-A-Bm-G[2X]-D-A-Bm-A)
   parang pang t.v. ...

  e|-222222-xxxxxx-222222-333333-|     |-222222-xxxxxx-222222-xxxxxx-|     
  B|-333333-222222-333333-333333-|     |-333333-222222-333333-222222-|
  G|-222222-222223-444444-444444-|(2X) |-222222-222223-444444-222222-|
  D|-xxxxxx-222222-444444-555555-|     |-xxxxxx-222222-444444-222222-|
  A|--------xxxxxx-222222-555555-|     |--------xxxxxx-222222-xxxxxx-|
  E|---------------xxxxxx-333333-|     |---------------xxxxxx--------|

----PRE-CHORUS 2:  (not shown actual strumming)----

guitar 1: powerchord (distortion)
guitar 2: major chords (clean)
  
     G       D      A            G      D     Bm      A
  e|------------------------------------------------------------|
  B|------------------------------------------------------------|
  G|--------777777---------------------777777-------------------|
  D|-555555-777777-777777777777-555555-777777-999999-777777-7-7-|
  A|-555555-555555-777777777777-555555-555555-999999-777777-7-7-|
  E|-333333--------555555555555-333333--------777777-555555-5-5-|

----chorus : (not shown actual strumming)----
     
guitar 1: powerchord (distortion)
guitar 2: major chords (clean)
     
       D     G        Bm   A
  e|--------------------------------|
  B|--------------------------------|
  G|-777777--------444444-----------|
  D|-777777-555555-444444-777777-7-7| (4x)
  A|-555555-555555-222222-777777-7-7|
  E|--------333333--------555555-5-5|

----INTERLUDE----

GUITAR 1: (same as in intro)
GUITAR 2: (same as in intro)


----VERSE 3: (not shown actual strumming)----

GUITAR 1: (same as in verse 1)
GUITAR 2: (same as in verse 1)


----PRE-CHORUS 3:  (not shown actual strumming)----

guitar 1: (same as in pre- chorus 1)
guitar 2: (same as in pre- chorus 1)
  

----VERSE 4: (not shown actual strumming)----

GUITAR 1(distortion) & 2(clean):(D-A-Bm-G[2X]-D-A-Bm-A)

  e|-222222-xxxxxx-222222-333333-|     |-222222-xxxxxx-222222-xxxxxx-|     
  B|-333333-222222-333333-333333-|     |-333333-222222-333333-222222-|
  G|-222222-222223-444444-444444-|(3X) |-222222-222223-444444-222222-|
  D|-xxxxxx-222222-444444-555555-|     |-xxxxxx-222222-444444-222222-|
  A|--------xxxxxx-222222-555555-|     |--------xxxxxx-222222-xxxxxx-|
  E|---------------xxxxxx-333333-|     |---------------xxxxxx--------|


----PRE-CHORUS 4:  (not shown actual strumming)----

guitar 1: (same as in pre- chorus 1)
guitar 2: (same as in pre- chorus 1)

----chorus : (not shown actual strumming)----
     
guitar 1: powerchord (distortion)
guitar 2: major chords (clean)
     
       D     G        Bm   A
  e|--------------------------------|
  B|--------------------------------|
  G|-777777--------444444-----------|
  D|-777777-555555-444444-777777-7-7| (4x)
  A|-555555-555555-222222-777777-7-7|
  E|--------333333--------555555-5-5|


----adlib----

guitar 1: (clean)
  e|----------------------------------------------------------|
  B|-7s10b-10b-10b-8-7-7h8b~-7-7h8s10b-10b~-8-7---------------|
  G|--------------------------------------------9b~-7h9-7--7~-|
  D|------------------------------------------------------9---| 
  A|----------------------------------------------------------|
  E|----------------------------------------------------------|
  
  e|----------17b------------------------------------------------------|
  B|----15-17b---17b~-17b-15-14-14h15-14~------------------------------|
  G|-s16----------------------------------s11b-11b-11b-9-7-7h9-7-6-4~~-|
  D|-------------------------------------------------------------------| 
  A|-------------------------------------------------------------------|
  E|-------------------------------------------------------------------|

guitar 2: (D-G-Bm-A)distortion

----bridge : (not shown actual strumming)----

guitar 1 & 2: clean (Bm-D-A[3X]-G-D-Bm-A[break])

  
      Bm      D     A                    G         D        Bm     A(break)
  e|-2~-2-|-2~-2-|-x--x-xxx-|         |-3~-333-|-2~-222-|-2~-222-|-x-|
  B|-3~-3-|-3~-3-|-2~-2-222-|         |-3~-333-|-3~-333-|-3~-333-|-2-|
  G|-4~-4-|-2~-2-|-2~-2-222-|         |-4~-444-|-2~-222-|-4~-444-|-2-|
  D|-4~-4-|-x--x-|-2~-2-222-| (3x)    |-5~-555-|-x--xxx-|-4~-444-|-2-|
  A|-2~-2-|------|-x--x-xxx-|         |-5~-555-|--------|-2~-222-|-x-|
  E|------|------|----------|         |-3~-333-|--------|--------|---|

             
----chorus : (not shown actual strumming)----

guitar 1: powerchord (distortion)
guitar 2: major chords (distortion)
     
       D     G        Bm   A
  e|--------------------------------|
  B|--------------------------------|
  G|-777777--------444444-----------|
  D|-777777-555555-444444-777777-7-7| (4x)
  A|-555555-555555-222222-777777-7-7|
  E|--------333333--------555555-5-5|

------outro:------

guitar 2: major chords (D-A-Bm-G[2x])distortion
guitar 1: distortion
  e|---------2-3-2--2-------------------5-3-2--2-3b-2------------------|
  B|-----3-5------5—-3--2-3-5-3-2-3b~~-------3-------3~--3-5-3-2-3b~~--|
  G|-2-4--------------2---------------------------------2--------------|
  D|-------------------------------------------------------------------|
  A|-------------------------------------------------------------------|
  E|-------------------------------------------------------------------|
                                                              
  e|-------2-3-2--2------------------5-3-2--2-3b-2-3b-2------|
  B|---3-5------5--3-2-3-5-3-2-3b~~-------3-------3----3b~~~-|
  G|-2--------------2----------------------------------------|
  D|---------------------------------------------------------|
  A|---------------------------------------------------------|
  E|---------------------------------------------------------|

---------------------------------------------------------------------------

thnx:
    > SenthyX Zone(2007)
                   - Buhi, Camarines Sur
    > III- St. Agnes (class of 2008-2009)
                   - St. Bridget School - Buhi, Camarines Sur
    > Senthyx (band)
                   - venjoe (drums)
                   - randy  (vocals, bass)
                   - andy   (vocals, rhythm guitars)
                   - paulo  (lead guitars)





Comments


Popular Parokya Ni Edgar tabs & chords
Pangarap Lang Kita 2 Bass Tabs
Its Ok Chords
Sampip 3 Chords
Chikinini Tabs
Crush Tabs
Lab Sung Tabs
Orange Tabs
Pangarap Lang Kita 6 Tabs
San Man Patungo (Solo) Tabs
This Guys In Love With You Tabs


Song lyrics



↑ Back to top | Tablatures and chords are parodies/interpretations of the original songs. You may use it for private study, scholarship, research or language learning purposes only
© 2014 AZChords.com Contact us | Privacy policy | DMCA | Add/correct tabs | Request tabs | Top 50 tabs