» » »

Halaga Tabs (ver.2)

Artists:  A B C D E F G H I J K L M N O P Q R S T U V W X Y Z # 

Halaga Tabs (ver.2)

Parokya Ni Edgar
Rating:
0/5 (0 votes)

Hard to play? Try these video lessons and learn fast.
                Intro:

Guitar 1: 

e|-------2-3-2-0-2-----------5-3-2-3-2-----------------------------|
B|-----3-----------3-------3-----------3----3s5--3-2-3-------------|
G|-2-2---------------2---2---------------2-------------------------|
D|-----------------------------------------------------------------|
A|-----------------------------------------------------------------|
E|-----------------------------------------------------------------|

then:

Guitar 2:

e|-------2-3-2-0-2-------------------------------------------------|
B|-----3-----------3-----------------------------------------------|
G|-2-2---------------2---------------------------------------------|
D|-----------------------------------------------------------------|
A|-----------------------------------------------------------------|
E|-----------------------------------------------------------------|

then:

Guitar 1:

e|-----5-3-2-3-2---------------------------------------------------|
B|---3-----------3----3s5--3-2-3-----------------------------------|
G|-2---------------2-----------------------------------------------|
D|-----------------------------------------------------------------|
A|-----------------------------------------------------------------|
E|-----------------------------------------------------------------|



\m/(',')\m/  Rock on!
            
Hard to play? Try these video lessons and learn fast. | Correct




comments powered by Disqus
↑ Back to top | Tablatures and chords are parodies/interpretations of the original songs. You may use it for private study, scholarship, research or language learning purposes only